Guitar Tabs Explorer
Steve Jablonsky guitar tabs for Hope runs deepgears of war theme

Hope Runs Deepgears Of War Theme tab


Be the first to rate

Hope Runs Deepgears Of War Theme tab by Steve Jablonsky

Intro

Print

Tuning: Standard

Difficulty: Novice


2:23
E|--------------------------------------------------------|
B|--------------------------------------------------------|
G|--------------------------------------------------------|
D|----------------------------------------------------4---|
A|---6-5-3--------3---5-6-2------6-5-3--------3---5-6-----|
E|------------3---------------------------3---------------|

E|--------------------------------------------------------|
B|--------------------------------------------------------|
G|--------------------------------------------------------|
D|---5--------6--1-3-5------1----0---1---------0----------|
A|--------3--------------3---------3--------------2-5-3---|
E|-----------------------------------------3--------------|

Comment this song and these intro

Do you have corrections, comments on the intro, thoughts about the song or a message to the author? Write them below.