Log in

One click and you are in

Login with Facebook Login with Google

Why sign up and log in

Guitar Tabs Explorer
J Rocks bass tabs for Ceria

Bass tabs

  • Tuning: Standard tuning
  • Difficulty: Beginner
-----------------------------------------------------------------------------
                     Artist - J-Rocks
                     ******************
                      Song - Ceria
                      **************
                  Album - Topeng Sahabat (2005)
                  *******************************
                     Tabbed By - Ayreon77
                    **********************
-----------------------------------------------------------------------------

Tuning = Standard

G|-------------|------------------|------------------|-----------------|------------------|
D|-s-----------|------------------|------------------|-----------------|------------------|
A|-\7---s------|-7-7-7----------4-|-5-5-5----------9-|-7-7-7---------4-|-5-5-5--5-5-5-5---|
E|-----9\--0-0-|--------5-5-5-7---|--------7-7-7-7---|-------5-5-5-7---|----------------5-|

                                     h
G|-------------------|------------------|-----------------|---7---7---7--5-7---7-|
D|-------------------|----------------4-|-----------------|------------------7---|
A|-7-7-7-----3-------|--------2-2-2-2---|-7-7-7---------4-|-5---5---5------------|
E|-------5-5---5-3-5-|-2-2-2------------|-------5-5-5-7---|----------------------|


WORDS
******
00:58
G|------------------|------------------|------------------|-----------------11-|
D|------------------|------------------|--------------4-7-|-9-9-9--9-9-9-9-----|
A|-7-7-7--7-7-7-7---|----------------4-|-5-5-5--5-5-5-----|--------------------|
E|----------------7-|-5-5-5--5-5-5-7---|------------------|--------------------|

G|------------------|------------------|------------------|
D|------------------|------------------|------------------|
A|-7-7-7--7-7-7-7---|----------------4-|-5-5-5--5-5-5-5---|
E|----------------7-|-5-5-5--5-5-5-7---|----------------5-|


G|-----------------------------------------------------|------------------------------|
D|------------------------------4-2-2-2-2--------------|------------------------------|
A|------0-0---0---0-0-4-2-2-0-2-----------4-0--0-2-4-0-|-5--5-5-0-5-0-5--5-4--5-4-0-0-|
E|-3-3------2---2--------------------------------------|------------------------------|

01:26
G|--------------------------------------------------------------------------------------|-------------------|
D|-------------------------------------------------4-2-2-2-2--2--2-2-2-2-2--------------|-7-7-5-5-4-4-2-2-0-|
A|---------2-0--0-0--0-2-0-----------0-2--2-0--2-2--------------------------0-0-0-0---0-|-------------------|
E|-3-3-3-3------------------2-2--2-3------------------------------------------------3---|-------------------|


WORDS
******
01::39
G|------------------|------------------|------------------|-----------------11-|
D|------------------|------------------|--------------4-7-|-9-9-9--9-9-9-9-----|
A|-7-7-7--7-7-7-7---|----------------4-|-5-5-5--5-5-5-----|--------------------|
E|----------------7-|-5-5-5--5-5-5-7---|------------------|--------------------|


G|------------------|------------------|------------------|
D|------------------|------------------|------------------|
A|-7-7-7--7-7-7-7---|----------------4-|-5-5-5--5-5-5-5---|
E|----------------7-|-5-5-5--5-5-5-7---|----------------5-|


01:56
G|----------------------------------------|-------------------|------------------|
D|--------------5--5-5--5-5--5-5--5-5-5-5-|---------7-7---7---|-----7------------|
A|-----------s----------------------------|-7-9-10------7---7-|-7-9------------9-|
E|-3--3--3--3\----------------------------|-------------------|-------7-7-9-10---|

                    02:12
G|------------------|------------------|-------------------|------------------|
D|--------7-7---7---|------------------|--------7-7----7-5-|------------------|
A|-7-9-10-----7---7-|---4-5--5-5---5---|-7-9-10-----7------|--------2-2---2-0-|
E|------------------|-7----------5---5-|-------------------|-0-1-2------2-----|


G|------------------|-------------------------|
D|------------------|-------------------------|
A|------------------|-5---5---5-5---5---5~~~~-|
E|-0-1-3--5-5-0-5-3-|---5---5-----5---5-------|


02:24
G|-----------------|-----------------|---------55-44-22-0-|--------------------------------------------|
D|-----------------|-----------------|-----2-5------------|--------------------------------------------|
A|-5-7-8-7-5-------|---2-0-0-----2-5-|-3-5----------------|-8-0-7-5-8-0-----5-7-8-0-88-0-7-5---------s-|
E|-----------0-5-3-|-2-------2-2-----|--------------------|-------------3-5------------------6---5--8\-|


02:44
G|-------------------|---------------------|---------------------|--------------------|
D|---------9-9---9---|--------11-11--------|---------9-9-----9---|--------------------|
A|-9-11-12-----9---9-|-7-9-11-------7-9-11-|-9-11-12-----9-9---9-|-7---7--7-7-----7---|
E|-------------------|---------------------|---------------------|---7--------7-7---7-|

02:54               going to finish this by Monday.....just the last verse and outro
G|-------------------|--------------------------------------------------------|
D|---------9-9---9---|-6---6---6-6--------------------------------------------|
A|-9-11-12-----9---9-|---6---6------------------------------------------------|
E|-------------------|--------------------------------------------------------|


ENJOY........

Almost there ...

Sign in to get your own page with links to favourite songs and more. You are just one click away...

Login with Facebook Login with Google