Log in

One click and you are in

Login with Facebook Login with Google

Why sign up and log in

Guitar Tabs Explorer
J+1 bass tabs for Eclipse

Bass tabs

Tuning: Standard (E A D G)


Intro:

(You're not even close)

(You're not even close)

Pre-Chorus:

You're not even close

G|-4-4-2-7-6-4-4-2----4-4-2-7-6-4-4-2----4-4-2-7-6-4-4-2----4-4-2-7-6-4-4-2------|
D|-------------------------------------------------------------------------------|
A|-------------------------------------------------------------------------------|
E|-------------------------------------------------------------------------------|


But a whisper away

G|-4-4-2-7-6-4-4-2----4-4-2-7-6-4-4-2----4-4-2-7-6-4-4-2----4-4-2-7-6-4-4-2------|
D|-------------------------------------------------------------------------------|
A|-------------------------------------------------------------------------------|
E|-------------------------------------------------------------------------------|


Chorus:

I feel like some things have been taken from me

G|-4-4-2-7-6-4-4-2----4-4-2-7-6-4-4-2----4-4-2-7-6-4-4-2----4-4-2-7-6-4-4-2------|
D|-------------------------------------------------------------------------------|
A|-------------------------------------------------------------------------------|
E|-------------------------------------------------------------------------------|

And I feel like I've never felt before

G|-4-4-2-7-6-4-4-2----4-4-2-7-6-4-4-2----4-4-2-7-6-4-4-2----4-4-2-7-6-4-4-2------|
D|-------------------------------------------------------------------------------|
A|-------------------------------------------------------------------------------|
E|-------------------------------------------------------------------------------|


Pre-Chorus:
(You're not even close)

(But a whisper away)


Chorus:

I feel like some things have been taken from me

G|-4-4-2-7-6-4-4-2----4-4-2-7-6-4-4-2----4-4-2-7-6-4-4-2----4-4-2-7-6-4-4-2------|
D|-------------------------------------------------------------------------------|
A|-------------------------------------------------------------------------------|
E|-------------------------------------------------------------------------------|

And I feel like I've never felt before

G|-4-4-2-7-6-4-4-2----4-4-2-7-6-4-4-2----4-4-2-7-6-4-4-2----4-4-2-7-6-4-4-2------|
D|-------------------------------------------------------------------------------|
A|-------------------------------------------------------------------------------|
E|-------------------------------------------------------------------------------|


Instrumental:

G|-4-4-2-7-6-4-4-2----4-4-2-7-6-4-4-2----4-4-2-7-6-4-4-2----4-4-2-7-6-4-4-2------|
D|-------------------------------------------------------------------------------|
A|-------------------------------------------------------------------------------| x2
E|-------------------------------------------------------------------------------|


Chorus:


I feel like some things have been taken from me

G|-4-4-2-7-6-4-4-2----4-4-2-7-6-4-4-2----4-4-2-7-6-4-4-2----4-4-2-7-6-4-4-2------|
D|-------------------------------------------------------------------------------|
A|-------------------------------------------------------------------------------|
E|-------------------------------------------------------------------------------|


And I feel like I've never felt before

G|-4-4-2-7-6-4-4-2----4-4-2-7-6-4-4-2----4-4-2-7-6-4-4-2----4-4-2-7-6-4-4-2------|
D|-------------------------------------------------------------------------------|
A|-------------------------------------------------------------------------------|
E|-------------------------------------------------------------------------------|


Chorus:

I feel like some things have been taken from me

G|-4-4-2-7-6-4-4-2----4-4-2-7-6-4-4-2----4-4-2-7-6-4-4-2----4-4-2-7-6-4-4-2------|
D|-------------------------------------------------------------------------------|
A|-------------------------------------------------------------------------------|
E|-------------------------------------------------------------------------------|


And I feel like I've never felt before

G|-4-4-2-7-6-4-4-2----4-4-2-7-6-4-4-2----4-4-2-7-6-4-4-2----4-4-2-7-6-4-4-2------|
D|-------------------------------------------------------------------------------|
A|-------------------------------------------------------------------------------|
E|-------------------------------------------------------------------------------|


Like I've never felt before

G|-4-4-2-7-6-4-4-2----4-4-2-7-6-4-4-2----4-4-2-7-6-4-4-2----4-4-2-7-6-4-4-2------|
D|-------------------------------------------------------------------------------|
A|-------------------------------------------------------------------------------|
E|-------------------------------------------------------------------------------|

Almost there ...

Sign in to get your own page with links to favourite songs and more. You are just one click away...

Login with Facebook Login with Google