Log in

One click and you are in

Login with Facebook Login with Google

Why sign up and log in

Guitar Tabs Explorer
J Geils Band bass tabs for Freeze frame

Bass tabs with lyrics

Intro:

G|----------------|----------------|----------------|----------------|
D|----------------|----------------|----------------|----------------|
A|3---------------|1---------------|3---------------|1-------------2h|
E|----------------|--------1-------|----------------|--------1-------|

G|----------------|--------5--3--2-|3---------------|----------------|
D|----------------|----------------|---------------3|----------------|
A|3-------------2h|3---------------|-----1-1-1------|0---1-----2---2h|
E|------2h3-------|----------------|----------------|----------------|

G|----------------|--------5--3--2-|3---------------|----------------|
D|----------------|----------------|---------------3|----------------|
A|3-------------2h|3---------------|-----1-1-1------|0---1-----2---2h|
E|------2h3-------|----------------|----------------|----------------|

Verse 1:

 I could see it was a rough-cut Tuesday  Slow motion weekdays stare me
G|----------------|--------5--3--2-|3---------------|----------------|
D|----------------|----------------|---------------3|----------------|
A|3-------------2h|3---------------|-----1-1-1------|0---1-----2---2h|
E|------2h3-------|----------------|----------------|----------------|

 down                   Her lipstick reflex got me
G|----------------|--------5--3--2-|3---------------|----------------|
D|----------------|----------------|---------------3|----------------|
A|3-------------2h|3---------------|-----1-1-1------|0---1-----2---2h|
E|------2h3-------|----------------|----------------|----------------|


 wound                   There were no defects to be
G|----------------|--------5--3--2-|3---------------|----------------|
D|----------------|----------------|---------------3|----------------|
A|3-------------2h|3---------------|-----1-1-1------|0---1-----2---2h|
E|------2h3-------|----------------|----------------|----------------|

 found                  Snapshot image froze without a
G|----------------|--------5--3--2-|3---------------|----------------|
D|----------------|----------------|---------------3|----------------|
A|3-------------2h|3---------------|-----1-1-1------|0---1-----2-----|
E|------2h3-------|----------------|----------------|----------------|

 sound
G|----------------|----------------|----------------|----------------|
D|----------------|----------------|----------------|----------------|
A|----------------|----------------|----------------|----------------|
E|3---------------|----------------|1---------------|----------------|

Bridge:

G|---------------|-----------------|----------------|-----------------|
D|---------------|-----------------|----------------|-----------------|
A|---------------|-----------------|----------------|---0---1---2---2h|
E|3---3---3---3--|3---3---3---3---3|3---3---3---3---|3----------------|


Verse 2:

Thursday morning was a hot flash-factor  Her face still focused in my
G|----------------|--------5--3--2-|3---------------|----------------|
D|----------------|----------------|---------------3|----------------|
A|3-------------2h|3---------------|-----1-1-1------|0---1-----2---2h|
E|------2h3-------|----------------|----------------|----------------|

 mind                 Test-strip, proof-sheet love is hard to
G|----------------|--------5--3--2-|3---------------|----------------|
D|----------------|----------------|---------------3|----------------|
A|3-------------2h|3---------------|-----1-1-1------|0---1-----2---2h|
E|------2h3-------|----------------|----------------|----------------|

 find                 Friday night we'll dance the spotlight
G|----------------|--------5--3--2-|3---------------|----------------|
D|----------------|----------------|---------------3|----------------|
A|3-------------2h|3---------------|-----1-1-1------|0---1-----2---2h|
E|------2h3-------|----------------|----------------|----------------|

 grind                  Stop-time heart for me if she's not
G|----------------|--------5--3--2-|3---------------|----------------|
D|----------------|----------------|---------------3|----------------|
A|3-------------2h|3---------------|-----1-1-1------|0---1-----2-----|
E|------2h3-------|----------------|----------------|----------------|

 mine
G|----------------|----------------|----------------|----------------|
D|----------------|----------------|----------------|----------------|
A|----------------|----------------|----------------|----------------|
E|3---------------|----------------|1---------------|----------------|


Bridge:

G|---------------|-----------------|----------------|----------------|
D|---------------|-----------------|----------------|----------------|
A|---------------|-----------------|----------------|-------0---1---2|
E|3---3---3---3--|3---3---3---3---3|3---3---3---3---|3--3------------|


Chorus:

 Freeze-frame (freeze-frame)    Freeze-frame (freeze-frame)
G|---------------------------------|---------------------------------|
D|---------------------------------|---------------------------------|
A|--3------3-----------------------|--3------3-----------------------|
E|---------------------------------|---------------------------------|

 Freeze-frame (freeze-frame)    Freeze-frame (Oooh!),  and now  freeze
G|---------------------------------|---------------------------------|-------------------|------------------|
D|---------------------------------|---------------------------------|-------------------|------------------|
A|--3------3-----------------------|--3------3----------------3---1--|-------------------|----------------2h|
E|---------------------------------|---------------------------------|---3---------------|3-----------------|


Verse 3:

Now I'm lookin' at a flashback Sunday  Zoom lens feelings just won't
G|----------------|--------5--3--2-|3---------------|----------------|
D|----------------|----------------|---------------3|----------------|
A|3-------------2h|3---------------|-----1-1-1------|0---1-----2---2h|
E|------2h3-------|----------------|----------------|----------------|

 disappear                Close-up darkroom sweet-talk in my
G|----------------|--------5--3--2-|3---------------|----------------|
D|----------------|----------------|---------------3|----------------|
A|3-------------2h|3---------------|-----1-1-1------|0---1-----2---2h|
E|------2h3-------|----------------|----------------|----------------|

 ear                   Her hot-spot love for me is
G|----------------|--------5--3--2-|3---------------|----------------|
D|----------------|----------------|---------------3|----------------|
A|3-------------2h|3---------------|-----1-1-1------|0---1-----2---2h|
E|------2h3-------|----------------|----------------|----------------|

 strong                  This freeze-frame moment can't be
G|----------------|--------5--3--2-|3---------------|----------------|
D|----------------|----------------|---------------3|----------------|
A|3-------------2h|3---------------|-----1-1-1------|0---1-----2-----|
E|------2h3-------|----------------|----------------|----------------|

 wrong
G|----------------|----------------|----------------|----------------|
D|----------------|----------------|----------------|----------------|
A|----------------|----------------|----------------|----------------|
E|3---------------|----------------|1---------------|----------------|


Bridge:

G|---------------|-----------------|----------------|----------------|
D|---------------|-----------------|----------------|----------------|
A|---------------|-----------------|----------------|-------0---1---2|
E|3---3---3---3--|3---3---3---3---3|3---3---3---3---|3--3------------|


Chorus:

 Freeze-frame (freeze-frame)    Freeze-frame (freeze-frame)
G|---------------------------------|---------------------------------|
D|---------------------------------|---------------------------------|
A|--3------3-----------------------|--3------3-----------------------|
E|---------------------------------|---------------------------------|

 Freeze-frame (freeze-frame)    Freeze-frame (Oooh!),  and now  freeze
G|---------------------------------|---------------------------------|-------------------|------------------|
D|---------------------------------|---------------------------------|-------------------|------------------|
A|--3------3-----------------------|--3------3----------------3---1--|-------------------|------------------|
E|---------------------------------|---------------------------------|---3---------------|3-----------------|


Bridge to Solo:

G|----------------|----------------|----------------|----------------|
D|----------------|----------------|----------------|----------------|
A|3---------------|----------------|3---------------|----------------|
E|----------------|----------------|----------------|----------------|

G|----------------|----------------|----------------|----------------|
D|----------------|----------------|----------------|----------------|
A|3---------------|----------------|15--------------|--------------2h|
E|----------------|----------------|----------------|----------------|


Solo:

 Shoop shoop ...
G|----------------|--------5--3--2-|3---------------|----------------|
D|----------------|----------------|---------------3|----------------|
A|3-------------2h|3---------------|-----1-1-1------|0---1-----2---2h|
E|------2h3-------|----------------|----------------|----------------|

 Shoop shoop ...
G|----------------|--------5--3--2-|3---------------|----------------|
D|----------------|----------------|---------------3|----------------|
A|3-------------2h|3---------------|-----1-1-1------|0---1-----2---2h|
E|------2h3-------|----------------|----------------|----------------|

 Shoop shoop ...
G|----------------|--------5--3--2-|3---------------|----------------|
D|----------------|----------------|---------------3|----------------|
A|3-------------2h|3---------------|-----1-1-1------|0---1-----2---2h|
E|------2h3-------|----------------|----------------|----------------|

 Shoop shoop ...
G|----------------|--------5--3--2-|3---------------|----------------|
D|----------------|----------------|---------------3|----------------|
A|3-------------2h|3---------------|-----1-1-1------|0---1-----2-----|
E|------2h3-------|----------------|----------------|----------------|


G|----------------|----------------|----------------|----------------|
D|----------------|----------------|----------------|----------------|
A|----------------|----------------|----------------|----------------|
E|3---------------|----------------|1---------------|----------------|


Bridge:

G|---------------|-----------------|----------------|----------------|
D|---------------|-----------------|----------------|----------------|
A|---------------|-----------------|----------------|-------0---1---2|
E|3---3---3---3--|3---3---3---3---3|3---3---3---3---|3--3------------|


Chorus:

 Freeze-frame (freeze-frame)    Freeze-frame (freeze-frame)
G|---------------------------------|---------------------------------|
D|---------------------------------|---------------------------------|
A|--3------3-----------------------|--3------3-----------------------|
E|---------------------------------|---------------------------------|

 Freeze-frame (freeze-frame)    Freeze-frame (Oooh!),  and now  freeze
G|---------------------------------|---------------------------------|-------------------|------------------|
D|---------------------------------|---------------------------------|-------------------|------------------|
A|--3------3-----------------------|--3------3----------------3---1--|-------------------|------------------|
E|---------------------------------|---------------------------------|---3---------------|3-----------------|


Outro:

G|----------------|----------------|----------------|----------------|
D|----------------|----------------|----------------|----------------|
A|3---------------|1---------------|3---------------|1-------------2h|
E|----------------|--------1-------|----------------|--------1-------|

 Freeze Frame ...           Freeze Frame
G|----------------|--------5--3--2-|3---------------|----------------|
D|----------------|----------------|---------------3|----------------|
A|3-------------2h|3---------------|-----1-1-1------|0---1-----2---2h|
E|------2h3-------|----------------|----------------|----------------|

 Freeze Frame ...           Freeze Frame
G|----------------|--------5--3--2-|3---------------|----------------|
D|----------------|----------------|---------------3|----------------|
A|3-------------2h|3---------------|-----1-1-1------|0---1-----2---2h|
E|------2h3-------|----------------|----------------|----------------|

 Freeze Frame ...           Freeze Frame
G|----------------|--------5--3--2-|3---------------|----------------|
D|----------------|----------------|---------------3|----------------|
A|3-------------2h|3---------------|-----1-1-1------|0---1-----2---2h|
E|------2h3-------|----------------|----------------|----------------|

 Freeze Frame ...           Freeze Frame
G|----------------|--------5--3--2-|3---------------|----------------|
D|----------------|----------------|---------------3|----------------|
A|3-------------2h|3---------------|-----1-1-1------|0---1-----2---2h|
E|------2h3-------|----------------|----------------|----------------|

 Shoop shoop ...           Freeze Frame
G|----------------|--------5--3--2-|3---------------|----------------|
D|----------------|----------------|---------------3|----------------|
A|3-------------2h|3---------------|-----1-1-1------|0---1-----2---2h|
E|------2h3-------|----------------|----------------|----------------|

 Shoop shoop ...           Freeze Frame
G|----------------|--------5--3--2-|3---------------|----------------|
D|----------------|----------------|---------------3|----------------|
A|3-------------2h|3---------------|-----1-1-1------|0---1-----2---2h|
E|------2h3-------|----------------|----------------|----------------|

 Shoop shoop ...           Freeze Frame
G|----------------|--------5--3--2-|3---------------|----------------|
D|----------------|----------------|---------------3|----------------|
A|3-------------2h|3---------------|-----1-1-1------|0---1-----2---2h|
E|------2h3-------|----------------|----------------|----------------|

 Shoop shoop ...           Freeze Frame
G|----------------|--------5--3--2-|3--------3------|----------------|
D|----------------|----------------|----------------|3---------------|
A|3-------------2h|3---------------|----------------|----------------|
E|------2h3-------|----------------|----------------|----------------|

Almost there ...

Sign in to get your own page with links to favourite songs and more. You are just one click away...

Login with Facebook Login with Google