Log in

One click and you are in

Login with Facebook Login with Google

Why sign up and log in

Guitar Tabs Explorer
J Balvin bass tabs for Como un bebe

Bass tabs

  • Difficulty: Beginner
Tuning: Standard (E A D G)


Intro, verses, refrains, choruses, bridge:

 1e+a2e+a3e+a4e+a|1e+a2e+a3e+a4e+a|1e+a2e+a3e+a4e+a|1e+a2e+a3e+a4e+a
G|----------------|----------------|----------------|----------------|
D|----------------|----------------|----------------|----------------|
A|------------6---|--4-6---4-------|4---------4-6---|--4-6---4-------|
E|----------------|6---------6-4---|--4-6---6-------|6---------6-4---|
                  |.................repeat...........


 1e+a2e+a3e+a4e+a|1e+a2e+a3e+a4e+a|1e+a2e+a3e+a4e+a|1e+a2e+a3e+a4e+a
G|----------------|----------------|----------------|----------------|
D|----------------|----------------|----------------|----------------|
A|4---------4-6---|--4-6---4-------|4---------4-6---|--4-6---4-------|
E|--4-6---6-------|6---------6-4---|--4-6---6-------|6---------6-4---|
 ...................................................................|

Almost there ...

Sign in to get your own page with links to favourite songs and more. You are just one click away...

Login with Facebook Login with Google