Search tabs and chords

Browse bands and artists

A B C D E F G H I J K L M N O P Q R S T U V W X Y Z #

Log in

[ Register here | Forgot password ]

Guitar Tabs Explorer
Print

Bass tabs :

Where Have You Been My Disco bass tab by Iv Of Spades

Intro
G|---3---5---6------8-----6---5---5-|---3---5---6----11----------------------|
D|----------------------------------|----------------------------------------|
A|-1---3---4---4/6-----4----3---4---|-1---3---4----9----8---1-1--------------|
E|----------------------------------|----------------------------------------|

G|---3---5---6------8-----6---5---------------------------|
D|-----------------------------------4-4---4-----3-3------|
A|-1---3---4---4/6-----4----3-------------------------1-1-|
E|------------------------------4--2-----2---2-1----------|

Verse
G|-----------8----------|---------------------|
D|----------------------|-----------4-3-------|
A|-1-3---4-6---4--4-3-4-|-1-3---4-------------|
E|----------------------|---------2-----6-4-6-|
                                                     (2x)
G|-----------8--------------------------------|
D|------------------------4-4---4-----3-3-----|
A|-1-3---4-6---4--4-3-------------------------|
E|--------------------4-2-----2---2-1-----1-1-|

Pre-chorus
G|-------------------------------------------------|
D|---4-----------------6-------4-----------------6-|
A|-------------------------------------------------|
E|-2---2-1/2--1/2-2--4---2---2---2-1/2--1/2-2--4---|

G|--------------------8-----8---------------|
D|---4--------------------------4-4---4---4-|
A|------------------6---6-6-----------------|
E|-2---2-1/2--1/2-2-----------2-----2---2---|

Chorus
G|---3---5---6------8-----6---5---5-|---3---5---6--------------|
D|----------------------------------|----------------4-3-------|
A|-1---3---4---4/6-----4----3---4---|-1---3---4----------------|
E|----------------------------------|--------------2-----6-4-6-|

G|---3---5---6------8-------------------------------------|
D|-----------------------------------4-4---4-----3-3------|
A|-1---3---4---4/6-----4--4-3-------------------------1-1-|
E|------------------------------4--2-----2---2-1----------|

Bridge
G|----------------------|
D|----------4------6--6-|  (3x)
A|----------------------|
E|-2-2--1-2---2--4--4---|

G|----------------------8-|
D|----------4------6--6---|
A|------------------------|
E|-2-2--1-2---2--4--4-----|

Last Chorus:
G|-----|-----------8------------------------|
D|-----|---------------------8--------------|
A|-----|-----8-7-6~-6------------7-8-9------|
E|-4-4-|-6-6----------4-4--6---6--------4-4-|

G|--------------10-9-8---------------------|
D|---8-------------------9-9---8-8---8---8-|
A|--------8-7-6----------------------------|
E|-6---6---------------7-----6-----6---6---|


************************************

| /   Slide up

************************************

Comments

Iv Of Spades bass tabs for Where have you been my disco