Log in

One click and you are in

Login with Facebook Login with Google

Why sign up and log in

Guitar Tabs Explorer
Iv Of Spades bass tabs for Mundo

Bass tabs with lyrics

Tuning: Standard (E A D G)

Key: B

Difficulty: Intermediate

------------------------------------------------------------------------------------------------------------
       Intro:

G|-----|------------------------|------------------------|------------------------|------------------------|
D|-----|------------------------|------------------------|------------------------|------------------------|
A|-----|------------------------|------------------------|------------------------|------------------------|
E|-11\-|7--7--7--7--7--7--7--7--|7--7--7--7--7--7--7--7\-|2--2--2--2--2--2--2--2--|2--2--2--2--2--2/-9-9-9-|

      G|------------------------|------------------------|------------------------|------------------------|
      D|------------------------|------------------------|------------------------|------------------------|
      A|------------------------|------------------------|------------------------|------------------------|
      E|7--7--7--7--7--7--7--7--|7--7--7--7--7--7--7--7\-|2--2--2--2--2--2--2--2--|2--2--2--2--2--2--2--2--|

------------------------------------------------------------------------------------------------------------

       Verse:

       "San darating ang mga salita"
      G|------------------------|------------------------|------------------------|------------------------|
      D|------------------------|------------------------|------------------------|------------------------|
      A|------------------------|------------------------|------------------------|------------------------|
      E|7--7--7--7--7--7--7--7--|7--7--7--7--7--7--7--7\-|2--2--2--2--2--2--2--2--|2--2--2--2--2--2/-9-9-9-|

       "Na nanggagaling sa aming dalawa"
      G|------------------------|------------------------|------------------------|------------------------|
      D|------------------------|------------------------|------------------------|------------------------|
      A|------------------------|------------------------|------------------------|------------------------|
      E|7--7--7--7--7--7--7--7--|7--7--7--7--7--7--7--7\-|2--2--2--2--2--2--2--2--|2--2--2--2--2--2--2--2/-|

       "Kung lumisan ka, wag naman sana"
      G|------------------------|------------------------|------------------------|------------------------|
      D|------------------------|------------------------|------------------------|------------------------|
      A|------------------------|------------------------|------------------------|------------------------|
      E|7--7--7--7--7--7--7--7--|7--7--7--7--7--7--7--7\-|2--2--2--2--2--2--2--2--|2--2--2--2--2--2/-9-9-9-|

       "Ika'y kumapit na, nang di makawala"
      G|------------------------|------------------------|------------------------|------------------------|
      D|------------------------|------------------------|------------------------|------------------------|
      A|------------------------|------------------------|------------------------|------------------------|
      E|7--7--7--7--7--7--7--7--|7--7--7--7--7--7--7--7\-|2--2--2--2--2--2--2--2--|2-----2-----2----/9-9-9-|

------------------------------------------------------------------------------------------------------------

       Chorus:
       - Sustain each note in this part of the song

       "Aking sinta, ikaw na ang tahanan at mundo"
      G|------------------------|------------------------|------------------------|------------------------|
      D|------------------------|------------------------|------------------------|------------------------|
      A|------------------------|------------------------|------------------------|------------------------|
      E|7--7--7--7--7--7--7--7--|7--7--7--7--7--7--7--7\-|2--2--2--2--2--2--2--2--|2--2--2--2--2--2--2--2--|

       "Sa pagbalik, mananatili na sa piling mo (Mundo'y magiging ikaw)"
      G|------------------------|------------------------|------------------------|------------------------|
      D|------------------------|------------------------|------------------------|------------------------|
      A|------------------------|------------------------|------------------------|------------------------|
      E|7--7--7--7--7--7--7--7--|7--7--7--7--7--7--7--7\-|2--2--2--2--2--2--2--2--|2--2--2--2--2--2--2--2--|

       - Stop sustaining notes after "Mundo'y magiging ikaw"
      G|------------------------|------------------------|
      D|------------------------|------------------------|
      A|------------------------|------------------------|
      E|7--7--7--7--7--7--7--7--|7--7--7--7--------------|

------------------------------------------------------------------------------------------------------------

       Verse 2:

       "Wag mag-alala kung nahihirapan ka"
      G|------------------------|------------------------|------------------------|------------------------|
      D|------------------------|------------------------|------------------------|------------------------|
      A|------------------------|------------------------|------------------------|------------------------|
      E|7-----------------------|------------------------|2--2--2--2--2--2--2--2--|2--2--2--2--2--2--2--2/-|

       "Halika na, sumama ka, pagmasdan ang mga tala"
      G|------------------------|------------------------|------------------------|------------------------|
      D|------------------------|------------------------|------------------------|------------------------|
      A|------------------------|------------------------|------------------------|------------------------|
      E|7--7--7--7--7--7--7--7--|7--7--7--7--7--7--7--7\-|2--2--2--2--2--2--2--2--|2-----2-----2----/9-9-9-|

------------------------------------------------------------------------------------------------------------

       Chorus:
       - Sustain each note in this part of the song

       "Aking sinta, ikaw na ang tahanan at mundo"
      G|------------------------|------------------------|------------------------|------------------------|
      D|------------------------|------------------------|------------------------|------------------------|
      A|------------------------|------------------------|------------------------|------------------------|
      E|7--7--7--7--7--7--7--7--|7--7--7--7--7--7--7--7\-|2--2--2--2--2--2--2--2--|2--2--2--2--2--2--2--2--|

       "Sa pagbalik, mananatili na sa piling mo (mundo'y magiging ikaw)"
      G|------------------------|------------------------|------------------------|------------------------|
      D|------------------------|------------------------|------------------------|------------------------|
      A|------------------------|------------------------|------------------------|------------------------|
      E|7--7--7--7--7--7--7--7--|7--7--7--7--7--7--7--7\-|2--2--2--2--2--2--2--2--|2--2--2--2--2--2--2--2--|

------------------------------------------------------------------------------------------------------------

       Bridge:

       "Limutin na ang mundo"                            "Nang magkasama tayo"
      G|------------------------|------------------------|------------------------|------------------------|
      D|------------------------|------------------------|------------------------|------------------------|
      A|------------------------|---------------------4--|6-----6-----6-----6-----|4-----4-----4-----4-----|
      E|4-----4-----4-----4-----|4-----4-----4-----4h6-6-|------------------------|------------------------|

       "Sunod sa bawat galaw"                            "Hindi na maliligaw"
      G|------------------------|------------------------|------------------------|------------------------|
      D|------------------------|------------------------|------------------------|------------------------|
      A|------------------------|------------------------|------------------------|4-----4-----4-----4-----|
      E|4--4--4--4--4--4--4--4--|4--4--4--4--4--4--4--4--|2--2--2--2--2--2--2--2/-|------------------------|

------------------------------------------------------------------------------------------------------------

       Solo:
                                                         "Hindi na maliligaw"
      G|------------------------|------------------------|------------------------|------------------------|
      D|------------------------|------------------------|------------------------|------------------------|
      A|------------------------|------------------------|------------------------|------------------------|
      E|7-----------------------|------------------------|2--2--2--2--2--2--2--2--|2--2--2--2--2--2/-9-9-9-|

       "Hindi na maliligaw"                              "Hindi na maliligaw"
      G|------------------------|------------------------|------------------------|------------------------|
      D|------------------------|------------------------|------------------------|------------------------|
      A|------------------------|------------------------|------------------------|------------------------|
      E|7--7--7--7--7--7--7--7--|7--7--7--7--7--7--7--7\-|2--2--2--2--2--2--2--2--|2--2--2--2--2--2/-9-9-9-|

       "Hindi na maliligaw"                              "Hindi na maliligaw"
       - Sustain from now on in this part of the song
      G|------------------------|------------------------|------------------------|------------------------|
      D|------------------------|------------------------|------------------------|------------------------|
      A|------------------------|------------------------|4--4--4--4--4--4--4--4--|4--4--4--4--4--4--4--4--|
      E|7--7--7--7--7--7--7--7--|7--7--7--7--7--7--7--7--|------------------------|------------------------|

       Bass Drop:
           "'Di na maliligaw"   "Hindi na maliligaw"     "Hindi na maliligaw"     "Hindi na maliligaw"
      G|------------------------|------------------------|------------------------|------------------------|
      D|------------------------|------------------------|------------------------|------------------------|
      A|------------------------|------------------------|------------------------|------------------------|
      E|14\---7-----7-----7-----|7-----7-----7-----7-----|9-----9-----9-----9-----|9-----9-----9-----9-----|

------------------------------------------------------------------------------------------------------------

       Chorus:
       - Sustain each note in this part of the song

       "Aking sinta, ikaw na ang tahanan at mundo (mundo'y magiging ikaw)"
      G|------------------------|------------------------|------------------------|------------------------|
      D|------------------------|------------------------|------------------------|------------------------|
      A|------------------------|------------------------|------------------------|------------------------|
      E|7--7--7--7--7--7--7--7--|7--7--7--7--7--7--7--7\-|2--2--2--2--2--2--2--2--|2--2--2--2--2--2/-9-9-9-|

       "Sa pagbalik, mananatili na sa piling mo (mundo'y magiging ikaw)"
      G|------------------------|------------------------|------------------------|------------------------|
      D|------------------------|------------------------|------------------------|------------------------|
      A|------------------------|------------------------|------------------------|------------------------|
      E|7--7--7--7--7--7--7--7--|7--7--7--7--7--7--7--7\-|2--2--2--2--2--2--2--2--|2--2--2--2--2--2--2--2--|

       "Aking sinta (limutin na ang mundo), ikaw na ang tahanan at mundo (nang magkasama tayo)"
      G|------------------------|------------------------|------------------------|------------------------|
      D|-------------4/6--4-----|------------------------|------------------------|------------------------|
      A|2--2--2--2/4------------|2--2--2--2--2--2--2--2--|------------------------|------------------------|
      E|------------------------|------------------------|2--2--2--2--2--2--2--2--|2--2--2--2--2--2/-9-9-9-|

       "Sa pagbalik (sunod sa bawat galaw), mananatili na sa piling mo (hindi na maliligaw, mundo'y magiging
       ikaw)"
      G|------------------------|------------------------|------------------------|------------------------|
      D|------------------------|------------------------|------------------------|------------------------|
      A|------------------------|------------------------|------------------------|------------------------|
      E|7--7--7--7--7--7--7--7--|7--7--7--7--7--7--7--7\-|2--2--2--2--2--2--2--2--|2--2--2--2--2--2--2--2--|

------------------------------------------------------------------------------------------------------------

       Bridge:

       "Limutin na ang mundo"                            "Nang magkasama tayo"
      G|------------------------|------------------------|------------------------|------------------------|
      D|------------------------|------------------------|------------------------|------------------------|
      A|------------------------|------------------------|2-----------------------|------------------------|
      E|0-----------------------|4-----------------------|------------------------|5-----------------------|

       "Sunod sa bawat galaw"                            "Hindi na maliligaw"
      G|------------------------|------------------------|------------------------|------------------------|
      D|------------------------|------------------------|------------------------|------------------------|
      A|------------------------|------------------------|2-----------------------|------------------------|
      E|0-----------------------|4-----------------------|------------------------|5-----------------------|

------------------------------------------------------------------------------------------------------------
************************************
      h - hammer on
      / - slide up
      \ - slide down
************************************

Almost there ...

Sign in to get your own page with links to favourite songs and more. You are just one click away...

Login with Facebook Login with Google