Log in

One click and you are in

Login with Facebook Login with Google

Why sign up and log in

Guitar Tabs Explorer
Iv Of Spades guitar chords for Mundo acoustic ukulele

Mundo Acoustic Ukulele chords by Iv Of Spades

Iv Of Spades guitar chords for Mundo acoustic ukulele

Guitar chords

Tuning: G C E A (G C E A)

Key: G

Difficulty: Novice
Intro:
Ukulele 1
    N.C.
A|------------1-------4--------1----------|
E|----------2-------2--------2--------2---| 8 times
C|------1h3-------3--------3------1h3-----|
G|----------------------------------------|

Ukulele 2
   Gb      B
A|---1-1-1-1-----2-2-2-2------------------|
E|---2-2-2-2-----2-2-2-2------------------|
C|---1-1-1-1-----3-3-3-3------------------|
G|----------------------------------------|



Verse:
   Gb      B
A|---1-1-1-1-----2-2-2-2------------------|
E|---2-2-2-2-----2-2-2-2------------------| 2 times
C|---1-1-1-1-----3-3-3-3------------------|
G|----------------------------------------|


(After Verses)
   N.C.
A|------------1-------4--------1----------|
E|----------2-------2--------2--------2---| 2 times
C|------1h3-------3--------3------1h3-----|
G|----------------------------------------|


************************************

| h Hammer-on

************************************

Almost there ...

Sign in to get your own page with links to favourite songs and more. You are just one click away...

Login with Facebook Login with Google