Guitar Tabs Explorer
Iv Of Spades bass tabs for Hey barbara

Hey Barbara bass tab


4.3 / 5 [6 votes]

Hey Barbara bass tab by Iv Of Spades

Bass tabs

Print
Hey Barbara By - IV Of Spades


Intro:
E|---------------------------10---------------------------------|
A|---------------10---10-------------10-------------------------|
D|-------------------------8----8-10-----8---10-----10---10-10--|
G|-1/8-8-8-6-7-8----8----8----------------------8-8----8--------|


E|-------------------10---------------------------------|
A|-------10---10-------------10-------------------------|
D|-----------------8----8-10-----8---10-----10---10-10--|
G|-6-7-8----8----8----------------------8-8----8--------|

Hey Barbara.......Tell me if you are satisfied.
E|--------------------10----------------------------------|
A|--------10---10-------------10--------------------------|
D|------------------8----8-10-----8---10-----10---10-10---| x9
G|--6-7-8----8----8----------------------8-8----8-------8-|

My dear Sandra! Tell me if you are satisfied.
E|--------------------------------10----------------------------------|
A|--------------------10---10-------------10--------------------------|
D|------------------------------8----8-10-----8---10-----10---10-10---|
G|-8\1--1/8-8-8-6-7-8----8----8----------------------8-8----8-------8-|

Hey, my Ramona!........So, you wanna dance with me?
E|--------------------10-----------------------------------|
A|--------10---10-------------10---------------------------|
D|------------------8----8-10-----8---10-----10---10-10----| x2
G|--6-7-8----8----8----------------------8-8----8----------|

I don't care what they say
E|--------------------------------------------------------------|
A|--------------------------------------------------------------|
D|--------------------------------------------------------------|
G|-8\1----------------------------------------------------------|

Dance now dance now baby
E|---------------------------10---------------------------------|
A|---------------10---10-------------10-------------------------|
D|-------------------------8----8-10-----8---10-----10---10-10--|
G|-1/8-8-8-6-7-8----8----8----------------------8-8----8--------|

Dance now dance now baby
E|--------------------10------------------------------------|
A|--------10---10-------------10----------------------------|
D|------------------8----8-10-----8---10-----10---10-10-----|
G|--6-7-8----8----8----------------------8-8----8-------8\1-|

(Bass Solo)
E|-----8--------------------------------10-10-9-9-8---------------|
A|-8-9---8---------------8-8-9-9-10--10--------------7-7-8-8-9-10-|
D|--------10-10-9-9-8--8------------------------------------------|
G|----------------------------------------------------------------|

E|------------------------------------10-10-9-9-8----------------|
A|---------------------8-8-9-9-10--10--------------7-7-8-8-9-10--|
D|-10---10-10-9-9-8--8-------------------------------------------|
G|----8----------------------------------------------------------|

E|------------------------------------10-10-9-9-8----------------|
A|---------------------8-8-9-9-10--10--------------7-7-8-8-9-10--|
D|-10---10-10-9-9-8--8-------------------------------------------|
G|----8----------------------------------------------------------|

E|-------------8---------------------------------10-10-9-9-8-------------|
A|-7-7-8-8-9-9---10----------------8-8-9-9-10--10------------7-7-8-8-9-10|
D|------------------10-10-9-9-8--8---------------------------------------|
G|-----------------------------------------------------------------------|

Hey I dont Care
E|------------------------------------10-10-9-9-8----------------|
A|---------------------8-8-9-9-10--10--------------7-7-8-8-9-10--|
D|-10---10-10-9-9-8--8-------------------------------------------|2x
G|----8----------------------------------------------------------|


E|-------------8---------------------------------10-10-9-9-8-------------|
A|-7-7-8-8-9-9---10----------------8-8-9-9-10--10------------7-7-8-8-9-10|
D|------------------10-10-9-9-8--8---------------------------------------|
G|-----------------------------------------------------------------------|

Hey I dont Care
E|------------------------------------10-10-9-9-8----------------|
A|---------------------8-8-9-9-10--10--------------7-7-8-8-9-10--|
D|-10---10-10-9-9-8--8-------------------------------------------|
G|----8----------------------------------------------------------|

E|-------------------10---------------------------------|
A|-------10---10-------------10-------------------------|
D|-----------------8----8-10-----8---10-----10---10-10--|
G|-6-7-8----8----8----------------------8-8----8--------|

Di pa siya tapos ang hirap kasi ng dulo so pwede naman siguro i play yung last hanggang dulo

Sorry if may mali mali 1st time ko lang gumawa e


************************************

| /   Slide up
| \   Slide down

Comment this song and these bass tabs

Do you have corrections, comments on the bass tabs, thoughts about the song or a message to the author? Write them below.