Log in

One click and you are in

Login with Facebook Login with Google

Why sign up and log in

Guitar Tabs Explorer
Iv Of Spades bass tabs for Come inside of my heart

Come Inside Of My Heart bass tab by Iv Of Spades

Iv Of Spades bass tabs for Come inside of my heart

Bass tabs with lyrics

Verse/Intro:
 "I love you, but I don’t really show you"
G|--------------------------------|--------------------------------|
D|--------------------------------|--------------------------------|
A|--------------------------------|--------------------------------|
E|3-3-3-3-3-3-3-3-3-3-3-3-3-3-3-3-|2-2-2-2-2-2-2-2-2-2-2-2-2-2-2-2-|

 "I'd call you, but only if you want me too"
G|--------------------------------|--------------------------------|
D|--------------------------------|--------------------------------|
A|--------------------------------|--------------------------------|
E|3-3-3-3-3-3-3-3-3-3-3-3-3-3-3-3-|2-2-2-2-2-2-2-2-2-2-2-2-2-2-2-2-|
 Pre-Chorus:
 "Oh don’t you let it stop, Oh I wont let it happen baby"
G|--------------------------------|--------------------------------|
D|--------------------------------|--------------------------------|
A|--------------------------------|--------------------------------|
E|3-3-------------3-3-------------|8------6------5------3----2-----|

 "I will never stop, but only if you listen to me"
G|--------------------------------|--------------------------------|
D|--------------------------------|--------------------------------|
A|--------------------------------|--------------------------------|
E|3-3-------------3-3-----------3/|8------6------5------1----------|


 Chorus:
 "Come inside of my heart, if you’re looking for answers, look at the stars go a little bit faster"
G|----------------------------------|-------------------------------|
D|------------8---------------------|-----------5---------------5---|
A|-------8-10---10------------------|-------5-8---5---------5-8---5-|
E|6--6-6-----------6-6-6-6-6-6-8-10-|3--3-3---------3-3-3-3---------|

 "Ohh, Ohh, Oh Oh, Ohh"
G|-------------------------------|-------------------------------|
D|-------------------------------|-------------------------------|
A|-------------------------------|-------------------------------|
E|8--8-8-6-8-8-8-8-8-8-8-8-8-8-8-|6--6-6-6-6-6-6-6-6-6-6-6-6-1-1-|

 "Come inside of my heart, if you’re looking for answers, look at the stars go a little bit faster"
G|----------------------------------|-------------------------------|
D|------------8---------------------|-----------5---------------5---|
A|-------8-10---10------------------|-------5-8---5---------5-8---5-|
E|6--6-6-----------6-6-6-6-6-6-8-10-|3--3-3---------3-3-3-3---------|

 "Ohh, Ohh, Oh Oh, Ohh"
G|-------------------------------|---------------------------------|
D|-------------------------------|---------------------------------|
A|-------------------------------|---------------------------------|
E|8--8-8-6-8-8-8-8-8-8-8-8-8-8-8-|6--6-6-6-6-6-6-6-6-6-6-6-6-6-6-6-|

 Verse:
 "Oh baby, forgive me if I hurt you"
G|--------------------------------|--------------------------------|
D|--------------------------------|--------------------------------|
A|--------------------------------|--------------------------------|
E|3-------------------------------|--------------------------------|

 "Come save me, ‘cause you're the only one who for me"
G|--------------------------------|--------------------------------|
D|--------------------------------|--------------------------------|
A|--------------------------------|-----------------------8h10-----|
E|--------------------------------|----------------------------6-5-|


 Pre-Chorus:
 "Oh don’t you let it stop, Oh I wont let it happen baby"
G|--------------------------------|--------------------------------|
D|--------------------------------|--------------------------------|
A|--------------------------------|--------------------------------|
E|3-3-------------3-3-------------|8------6------5------3----2-----|

 "I will never stop, but only if you listen to me"
G|--------------------------------|--------------------------------|
D|--------------------------------|--------------------------------|
A|--------------------------------|--------------------------------|
E|3-3-------------3-3-----------3/|8------6------5------1----------|


 Chorus:
 "Come inside of my heart, if you’re looking for answers, look at the stars go a little bit faster"
G|----------------------------------|-------------------------------|
D|------------8---------------------|-----------5---------------5---|
A|-------8-10---10------------------|-------5-8---5---------5-8---5-|
E|6--6-6-----------6-6-6-6-6-6-8-10-|3--3-3---------3-3-3-3---------|

 "Ohh, Ohh, Oh Oh, Ohh"
G|-------------------------------|-------------------------------|
D|-------------------------------|-------------------------------|
A|-------------------------------|-------------------------------|
E|8--8-8-6-8-8-8-8-8-8-8-8-8-8-8-|6--6-6-6-6-6-6-6-6-6-6-6-6-1-1-|

 "Come inside of my heart, if you’re looking for answers, look at the stars go a little bit faster"
G|----------------------------------|-------------------------------|
D|------------8---------------------|-----------5---------------5---|
A|-------8-10---10------------------|-------5-8---5---------5-8---5-|
E|6--6-6-----------6-6-6-6-6-6-8-10-|3--3-3---------3-3-3-3---------|

 "Ohh, Ohh, Oh Oh, Ohh"
G|-------------------------------|-------------------------------|
D|-------------------------------|-------------------------------|
A|-------------------------------|-----------------------------6-|
E|8--8-8-6-8-8-8-8-8-8-8-8-8-8-8-|6--6-6-6-6-6-6-6-6-6-6-6-3-6---|


 Bridge:
 "Whatever happens to my baby, I’m sorry"
G|-------------------------------|--------------------------------|
D|-------------------------------|--------------------------------|
A|4--4-4-4-4-4-4-4-4-4-4-4-4-4-4-|---------------------------6----|
E|-------------------------------|8--8-8-8-8-8-8-8-8-8-8-8-8---8--|

 "No one could ever go my way"
G|-------------------------------|--------------------------------|
D|-------------------------------|-----------------8-8-8-8-8-8-8--|
A|4--4-4-4-4-4-4-4-4-4-4-4-4-4-4-|--------------------------------|
E|-------------------------------|6--6-6-6-6-6-6-6----------------|


 Chorus:
 "I love you, but I don’t really show you"
G|--------------------------------|--------------------------------|
D|--------------------------------|--------------------------------|
A|--------------------------------|--------------------------------|
E|3-------------------------------|--------------------------------|

 "Come inside of my heart, if you’re looking for answers, look at the stars go a little bit faster"
G|---------------------------------|-------------------------------|
D|-----------8---------------------|-----------5---------------5---|
A|------8-10---10------------------|-------5-8---5---------5-8---5-|
E|6--6------------6-6-6-6-6-6-8-10-|3--3-3---------3-3-3-3---------|

 "Ohh, Ohh, Oh Oh, Ohh"
G|-------------------------------|---------------------------------|
D|-------------------------------|----------------/8-8-8-8---------|
A|-------------------------------|---------------------------------|
E|8--8-8-6-8-8-8-8-8-8-8-8-8-8-8-|6--6-6-6-6-6-6-6---------1-1-1-8-|

 "Come inside of my heart, if you’re looking for answers, look at the stars go a little bit faster"
G|---------------------------------|-------------------------------|
D|-----------8---------------------|-----------5---------------5---|
A|------8-10---10------------------|-------5-8---5---------5-8---5-|
E|6--6------------6-6-6-6-6-6-8-10-|3--3-3---------3-3-3-3---------|

 "Ohh, Ohh, Oh Oh, Ohh"
G|-------------------------------|-------------------------------|
D|-------------------------------|----------------/8-8-8-8-8-8-8\|
A|---------------------------6---|-------------------------------|
E|8--8-8-6-8-8-8-6-8-6-8-8-8---8-|6--6-6-6-6-6-6-6---------------|


 Solo/Outro:
G|--------------------------------|-------------------------------|
D|--------------------------------|-------------------------------|
A|--------------------------------|-------------------------------|
E|6--6-6-6-6-6-6-6-6-6-6-6-6-8-10-|3--3-3-3-3-3-3-3-3-3-3-3-3-6-6-|

G|-------------------------------|---------------------------------|
D|-------------------------------|---------------------------------|
A|-------------------------------|---------------------------------|
E|8--8-8-8-8-8-8-8-8-8-8-8-8-8-8-|6--6-6-6-6-6-6-6-6-6-6-6-1-1-1-1-|

G|-------------------------------|---------------------------------|
D|-------------------------------|---------------------------------|
A|---------------------5-5-3-3-3-|---------------------------------|
E|6--6-6-6-6-6-6-6-6-6-----------|3--3-3-3-3-3-3-3-3-3-3-3-3-6-6-6-|

G|-------------------------------|---------------------------------|
D|-------------------------------|---------------------------------|
A|-------------------------------|---------------------------------|
E|8--8-8-8-8-8-8-8-8-8-8-8-8-8-8-|6--6-6-6-6-6-6-6-6-6-6-6-1-1-1-1-|

Almost there ...

Sign in to get your own page with links to favourite songs and more. You are just one click away...

Login with Facebook Login with Google