Log in

One click and you are in

Login with Facebook Login with Google

Why sign up and log in

Guitar Tabs Explorer
Iv Of Spades bass tabs for Ang pinagmulan

Bass tabs

Tuning: Standard (E A D G)


 Verse 1:
 "‘Di ko man alam, ang rason at dahilan..."        "Itago man lahat, hindi..."   "... ang katotohanan"
G|------------------------|------------------------|------------------------|------------------------|
D|------------------------|------------------------|------------------------|------------------------|
A|-----------------------/|10---------/13----------|-----------------------/|10---------/13----------|
E|11----------11-----\1---|--------------------13--|11----------11-----\1---|--------------------13--|
 Pre-Chorus:
 "‘Di mo ba alam ..."            "...Ang makalaban "
G|------------------------|------------------------|
D|------------------------|------------------------|
A|------------------------|------------------------|
E|11----------11------13--|10----------10----------|


 Chorus:
 "Sa’yong pagtingin..."            "...sagipin mo ‘ko, nalulunod na ako"
G|---------------------------------|-----------------------------------|
D|---------------------------------|-----------------------------------|
A|3--3--3--3----------3--3--3--5---|-------------------------------5---|
E|-------------3h6-3---------------|3------3-3----3--3----3----3-------|

 "Sa’yong pagtingin..."            "...sagipin mo ‘ko, nalulunod na ako"
G|---------------------------------|-----------------------------------|
D|---------------------------------|-----------------------------------|
A|3--3--3--3----------3--3--3--5---|-----------------------------------|
E|-------------3h6-3---------------|3------3-3----3--3----3----3-------|


 Verse 2:
 "'Di mo ba..." "...nalilito"
G|--------------------------|
D|--------------------------|
A|--------------------------|
E|--------------------------|

 Pre-Chorus:
 "‘Di mo ba alam ..."            "...Ang makalaban "
G|------------------------|------------------------|
D|------------------------|------------------------|
A|------------------------|------------------------|
E|11----------11------13--|10----------10----------|


 Chorus:
 "Sa’yong pagtingin, ang tanging hiling"        "sagipin mo ‘ko, nalulunod na ako"
G|----------------------------------------------|-----------------------------------|
D|----------------------------------------------|-----------------------------------|
A|3--3--3--3----------3--3----------5--3-----3--|-------------------------------5---|
E|-------------3h6-3---------3h6-3--------6-----|3------3-3----3--3----3----3-------|

 "Sa’yong pagtingin, ang tanging hiling"        "sagipin mo ‘ko, nalulunod na ako"
G|----------------------------------------------|
D|----------------------------------------------|
A|3--3--3--3----------3--3----------5--3-----3--|
E|-------------3h6-3---------3h6-3--------6-----|


 Guitar Solo:
G|---------------------------|-------------------------|----------------|----------------|
D|---------------------------|-------------------------|----------------|----------------|
A|6---6-----6---8---10-------|----------3---5---6------|----------------|----------------| x2
E|--------6--------------10--|8---8\--3-------------6--|3---3---3---3---|1---1---3---6---|


 Pre-Chorus:
 "'Di mo..." "...pakiramdam "
G|--------------------------|
D|--------------------------|
A|--------------------------|
E|--------------------------|


 Chorus:
 "Sa’yong pagtingin..."           "sagipin mo ‘ko, nalulunod na ako"
G|--------------------------------|--------------------------------|
D|--------------------------------|--------------------------------|
A|3---3---3---3---6---6---6-------|--------------------------------|
E|----------------------------6-5-|3---3---3---3---1---1---1---1---|

 "Sa’yong pagtingin..."           "sagipin mo ‘ko, nalulunod na ako"
G|--------------------------------|--------------------------------|
D|--------------------------------|--------------------------------|
A|3---3---3---3---6---6---6-------|--------------------------------|
E|----------------------------6-5-|3---3---3---3---1---1---1---5-6-|

 "Sa’yong pagtingin, ang tanging hiling"      "sagipin mo ‘ko, nalulunod na ako"
G|--------------------------------------------|-------------------------------|
D|--------------------------------------------|-------------------------------|
A|3---3--1h3--1h3-----3--6---6---3h6--3h6--8--|-------------------------------|
E|--------------------------------------------|3------3-3----3--3----3----3---|

 "Sa’yong pagtingin, ang tanging hiling"               "sagipin mo ‘ko, nalulunod na ako"
G|---------------------------|-------------------------|----------------|-------------------|
D|---------------------------|-------------------------|----------------|-------------------|
A|6---6-----6---8---10-------|----------3---5---6------|----------------|-------------------|
E|--------6--------------10--|8---8\--3-------------6--|3---3---3---3---|6-6-6-6-6-6-6--10--|


 Outro:
 "Sagipin mo ‘ko, nalulunod na ako"
G|--------------------------------|--------------------------------|
D|----------------12---10-----10--|----------------12---10-----10--|
A|------10h13-10----------13------|------10h13-10----------13------|
E|8-------------------------------|8-------------------------------|

 "Sagipin mo ‘ko, nalulunod na ako"
G|---------------------------|---------------------------|
D|--------3---5/7---5--3--5--|--------3---5/7---5--3--5--|
A|------5---5----------------|------5---5----------------|
E|3--------------------------|3--------------------------|

 "Sagipin mo ‘ko, nalulunod na ako"
G|--------------------------------|--------------------------------|
D|----------------12---10-----10--|----------------12---10-----10--|
A|------10h13-10----------13------|------10h13-10----------13------|
E|8-------------------------------|8-------------------------------|

 "Sagipin mo ‘ko, nalulunod na ako"
G|---------------------------|-----------------|---|
D|--------3---5h7---5--3--5--|-----------------|---|
A|------5---5----------------|-----------------|---|
E|3--------------------------|3---5---6---10---|8--|

LEGEND
************************************
  /  slide up
  \  slide down
  h  hammer-on
************************************

Almost there ...

Sign in to get your own page with links to favourite songs and more. You are just one click away...

Login with Facebook Login with Google