Log in

One click and you are in

Login with Facebook Login with Google

Why sign up and log in

Guitar Tabs Explorer
Iv Of Spades bass tabs for Ang pinagmulan (Ver. 2)

Bass tabs

🎸 Verse :
  Di ko man alam
G|---------------------------------------------------------------|
D|---------------------------------------------------------------|
A|--6----------------------6--------8\---------------------------| X2
E|----------------------------------------3-------6--------------|

🎸 Pre-Chorus:
 Di mo ba alam?
G|---------------------------------------------------------------|
D|---------------------------------------------------------------|
A|--6---------------------6--------------5-------x-5-5-5-x-5-----|
E|---------------------------------------------------------------|

🎸 Chorus:
 Sa 'yong pagtingin
G|--------------------------------------------------------------------|
D|--------------------------------------------------------------------|
A|-3-----3----------3---------5-3-1-3--------------------------3/5----|
E|------------3-6-3-----3-6-3----------3--x-3-----3-3-x-3-x-3---------|

G|---------------------------------------------------------------|
D|---------------------------------------------------------------|
A|-3-----3----------3---------5-3-1-3----------------------------|
E|------------3-6-3-----3-6-3----------3--x-3-----3-3-x-3-x-3----|

No bass until Pre-Chorus

🎸 Pre-Chorus:
 di mo ba alam
G|---------------------------------------------------------------|
D|---------------------------------------------------------------|
A|--6---------------------6--------------5-------x-5-5-x-5-x-5---|
E|---------------------------------------------------------------|

🎸 Chorus:
Sa 'yong pagtingin
G|--------------------------------------------------------------------|
D|--------------------------------------------------------------------|
A|-3-----3----------3---------5-3-1-3-------------------------3/5-----|
E|------------3-6-3-----3-6-3----------3--x-3----3-3-x-3-x-3----------|

G|---------------------------------------------------------------|
D|---------------------------------------------------------------|
A|-3-----3----------3---------5-3-1-3----------------------------|
E|------------3-6-3-----3-6-3------------------------------------|

Guitar 🎸 Solo:
G|---------------------------------------------------------------|
D|---------------------------------------------------------------|
A|-6-----6-8-10--------3-5-6-------------------------------------|
E|------5-----10-8----5-----6-3------------1/-----5--6-----------|

G|---------------------------------------------------------------|
D|---------------------------------------------------------------|
A|-6-----6-8-10--------3-5-6-----------------------------6-------|
E|------5-----10-8----5-----6-3------------1/-----5--6-----------|

 No bass until Chorus

🎸 Chorus:
 Sa 'yong pagtingin
G|---------------------------------------------------------------|
D|---------------------------------------------------------------|
A|-3-----3-3/---6-----6-6\---------------------------------------| X2
E|--------------------------3---3-3\-1/----5--6------------------|

G|---------------------------------------------------------------|
D|---------------------------------------------------------------|
A|-3----3-3-----------6---6\-------------------------------------|
E|-----3-3---3-6-3-6-3------3--x-3---x-3-3--3-x-3----------------|

G|---------------------------------------------------------------|
D|---------------------------------------------------------------|
A|-6-----6-8-10--------3-5-6-------------------------------------|
E|------5-----10-8----5-----6-3------------1/-----5--6-----------|

🎸 Outro:
G|---------------------------------------------------------------|
D|--------8----10/12-10-8-10-------------------------------------|
A|-----10---10---------------------------------------------------| x2
E|-8-------------------------------------------------------------|

G|---------------------------------------------------------------|
D|-------3---5/7-5-3-5-------------------------------------------|
A|-----5---5-----------------------------------------------------| X2
E|-3-------------------------------------------------------------|

G|---------------------------------------------------------------|
D|--------8----10/12-10-8-10-------------------------------------|
A|-----10---10---------------------------------------------------| x2
E|-8-------------------------------------------------------------|

G|---------------------------------------------------------------|
D|-------3---5/7-5-3-5-------------------------------------------|
A|-----5---5-----------------------------------------------------|
E|-3--------------------3-5-6-6/10--8----------------------------|


| / slide up
| \ slide down
| x Mute note

Other versions of Ang Pinagmulan

Ang pinagmulanBass tabs

Almost there ...

Sign in to get your own page with links to favourite songs and more. You are just one click away...

Login with Facebook Login with Google