Log in

One click and you are in

Login with Facebook Login with Google

Why sign up and log in

Guitar Tabs Explorer
Chris Isaak guitar tabs for Wicked game (Ver. 3)

Guitar tabs with lyrics

  • Tuning: Standard tuning
  • Difficulty: Intermediate
Wicked Game
Chris Isaak

Mixolydian scale
E|------------------------------------------------------------|
B|--0-(tremolo, down 1/2 step)---7--7 (slide down & away) -0--|
G|------------------------------------------------------------|
D|------------------------------------------------------------|
A|------------------------------------------------------------|
E|------------------------------------------------------------|


E|-----------------------------------------------------------------------------------------------|
B|--0-(tremolo, down 1/2 step)--(palm mute and rake down from 6th string to 2nd string 5th fret)-|
G|-----------------------------------------------------------------------------------------------|
D|-----------------------------------------------------------------------------------------------|
A|-----------------------------------------------------------------------------------------------|
E|-----------------------------------------------------------------------------------------------|


E|------------------------------2-----0----------------------------|
B|--5--3--2--0 (Tremolo)----------3-----3--2-----------------------|
G|------------------------2--1----------------4--4--2--1--1--2s-4--|
D|-----------------------------------------------------------------|
A|-----------------------------------------------------------------|
E|-----------------------------------------------------------------|


E|----2-----0-------------------------------|
B|-------3-----3--2-------------------------|
G|-- ----------------4--4--2--1--1--2s-4----|
D|------------------------------------------|
A|------------------------------------------|
E|------------------------------------------|


    A chord diagramB minorBm                    A chord diagramA majorA                        A chord diagramE MajorE
The world was on fire and no one could save me but you


     A chord diagramB minorBm                       A chord diagramA majorA                   A chord diagramE MajorE     E----------------|
It`s strange what desire will make foolish people do    B----------------|
                                                        G----1--h2--s4---|
                                                        D--2-------------|
                                                        A----------------|
                                                        E----------------|



A chord diagramB minorBm                   A chord diagramA majorA                      A chord diagramE MajorE      E------------|
I never dreamed that I`d meet somebody like you    B------------|
                                                   G------------|
                                                   D--------2---|
                                                   A--2--s4---4-|
                                                   E------------|


    A chord diagramB minorBm                   A chord diagramA majorA                      A chord diagramE MajorE
And I never dreamed that I`d lose somebody like you     E----------------|
                                                        B----------------|
                                                        G----1--h2--s4---|
                                                        D--2-------------|
                                                        A----------------|
                                                        E----------------|




   A chord diagramB minorBm     A chord diagramA majorA                    A chord diagramE MajorE
No I..... don`t wanna` fall in love  (This world is only gonna` break your heart)
                                                        E----------------|
                                                        B----------------|
                                                        G----1--h2--s4---|
                                                        D--2-------------|
                                                        A----------------|
                                                        E----------------|

   A chord diagramB minorBm    A chord diagramA majorA                    A chord diagramE MajorE
No I.... don`t wanna` fall in love  (This world is only gonna` break your heart)
                                                        E----------------|
                                                        B----------------|
                                                        G----1--h2--s4---|
                                                        D--2-------------|
                                                        A----------------|
                                                        E----------------|
     A chord diagramB minorBm
With You

E|----2-----0-----------------------------|
B|-------3-----3--2-----------------------|
G|-------------------4--4--2--1--h1--s4---|
D|----------------------------------------|
A|----------------------------------------|
E|----------------------------------------|

     A chord diagramB minorBm
With you

E|----2-----0-----------------------------|
B|-------3-----3--2-----------------------|
G|-------------------4--4--2--1--h1--s4---|
D|----------------------------------------|
A|----------------------------------------|
E|----------------------------------------|

                           (This world is only gonna` break your heart)   A chord diagramB minorBm


              A chord diagramA majorA            A chord diagramE MajorE                             A chord diagramB minorBm
What a wicked game to play     to make me feel this way


              A chord diagramA majorA            A chord diagramE MajorE                          A chord diagramB minorBm
What a wicked thing to do     to let me dream of you

              A chord diagramA majorA             A chord diagramE MajorE                           A chord diagramB minorBm
What a wicked thing to say     you never felt this way


              A chord diagramA majorA            A chord diagramE MajorE
What a wicked thing to do     to make me dream of you... and



A chord diagramB minorBm     A chord diagramA majorA              A chord diagramE MajorE
I..... wanna` fall in love  (This world is only gonna` break your heart)
                                                E----------------|
                                                B----------------|
                                                G----1--h2--s4---|
                                                D--2-------------|
                                                A----------------|
                                                E----------------|
    A chord diagramB minorBm    A chord diagramA majorA              A chord diagramE MajorE
No  I.... wanna` fall in love with you   (This world is only gonna` break your heart)
                                                             E----------------|
                                                             B----------------|
                                                             G----1--h2--s4---|
                                                             D--2-------------|
                                                             A----------------|
                                                             E----------------|
     A chord diagramB minorBm
with you





E|------------------------------------------------------------|
B|--0-(tremolo, down 1/2 step)---7--7 (slide down & away) -0--|
G|------------------------------------------------------------|
D|------------------------------------------------------------|
A|------------------------------------------------------------|
E|------------------------------------------------------------|


E|--------------------------------------------------------------------------------------|
B|--0-(tremolo, down 1/2 step)--(palm mute and rake down from 6th string to 5th string)-|
G|--------------------------------------------------------------------------------------|
D|--------------------------------------------------------------------------------------|
A|--------------------------------------------------------------------------------------|
E|--------------------------------------------------------------------------------------|



E|-----------------------------2-----0----------------------------|
B|--5--3--2--0 (Tremolo)---------3-----3--2-----------------------|
G|------------------------2--1---------------4--4--2--1--1--2s-4--|
D|----------------------------------------------------------------|
A|----------------------------------------------------------------|
E|----------------------------------------------------------------|


E|----2-----0-----------------------------|
B|-------3-----3--2-----------------------|
G|-------------------4--4--2--1--h1--s4---|
D|----------------------------------------|
A|----------------------------------------|
E|----------------------------------------|


A chord diagramB minorBm                        A chord diagramA majorA                        A chord diagramE MajorE
The world was on fire and no one could save me but you


     A chord diagramB minorBm                       A chord diagramA majorA                   A chord diagramE MajorE
It`s strange what desire will make foolish people do    E----------------|
                                                        B----------------|
                                                        G----1--h2--s4---|
                                                        D--2-------------|
                                                        A----------------|
                                                        E----------------|


A chord diagramB minorBm                   A chord diagramA majorA                      A chord diagramE MajorE
I never dreamed that I`d like somebody like you   E----------------|
                                                  B----------------|
                                                  G----1--h2--s4---|
                                                  D--2-------------|
                                                  A----------------|
                                                  E----------------|

A chord diagramB minorBm                   A chord diagramA majorA                      A chord diagramE MajorE
I never dreamed that I`d lose somebody like you  E---------------------------------|
                                                 B---------------------------------|
                                                 G--------------2---2--4---6-------|
                                                 D--------2---2---4------6---7--7--|
                                                 A--2--s4---4----------------------|
                                                 E---------------------------------|


(7th fret) (5th fret)
   A chord diagramB minorBm        A chord diagramA majorA              A chord diagramE MajorE
No I........ wanna` fall in love (This world is only gonna` break your heart)
                                                     E----------------|
                                                     B----------------|
                                                     G----1--h2--s4---|
                                                     D--2-------------|
                                                     A----------------|
                                                     E----------------|

   A chord diagramB minorBm      A chord diagramA majorA              A chord diagramE MajorE
No I.....  wanna` fall in love (This world is only gonna` break your heart)
                                                   E----------------|
                                                   B----------------|
                                                   G----1--h2--s4---|
                                                   B--2-------------|
                                                   A----------------|
                                                   E----------------|
     A chord diagramB minorBm
With you


E|----2-----0-----------------------------|
B|-------3-----3--2-----------------------|
G|-------------------4--4--2--1--h1--s4---|
D|----------------------------------------|
A|----------------------------------------|
E|----------------------------------------|

                              (This world is only gonna` break your heart)

     A chord diagramB minorBm
With you


E|----2-----0-----------------------------|
B|-------3-----3--2-----------------------|
G|-------------------4--4--2--1--h1--s4---|
D|----------------------------------------|
A|----------------------------------------|
E|----------------------------------------|


                               (This world is only gonna` break your heart)

No I.............................................................

E|----2-----0-----------------------------|
B|-------3-----3--2-----------------------|
G|-------------------4--4--2--1--h1--s4---|
D|----------------------------------------|
A|----------------------------------------|
E|----------------------------------------|

                               (This world is only gonna` break your heart)

E|----2-----0-----------------------------|
B|-------3-----3--2-----------------------|
G|-------------------4--4--2--1--h1--s4---|
D|----------------------------------------|
A|----------------------------------------|
E|----------------------------------------|

                               (This world is only gonna` break your heart)

A chord diagramB minorBm          A chord diagramA majorA              A chord diagramE MajorE
   Nobody      loves no one

Wicked Game tab

Chris Isaak guitar tabs for Wicked game (Ver. 3) Wicked Game is a song by American rock musician Chris Isaak, released from his third studio album Heart Shaped World (1989). Despite being released as a single in 1989, it did not become a hit until it was later featured in the David Lynch film Wild at Heart (1990). Lee Chesnut, an Atlanta radio station music director who loved David Lynch films, began playing the song, and it quickly became a nationwide top-ten hit in January 1991, reaching number 6 on the Billboard Hot 100 chart, making it the first hit song of Isaaks career. It has subsequently been covered by many other artists and been featured in numerous high-profile movies and television series and advertisements, so much so that Dazed magazine questioned whether it might be the most influential love song in modern music.

Other versions of Wicked Game

Wicked gameChords
Wicked game (Ver. 2)Chords
Wicked game-(Ver. 3)Chords
Wicked gameTabs
Wicked game (Ver. 2)Tabs

Almost there ...

Sign in to get your own page with links to favourite songs and more. You are just one click away...

Login with Facebook Login with Google