Log in

One click and you are in

Login with Facebook Login with Google

Why sign up and log in

Guitar Tabs Explorer
Gregory Isaacs bass tabs for The fugitive

Bass tabs

Main/Chorus Riff

G |---------------------|---------------------|
D |-----5---5-----5---5-|-----5---5-----5---5-|
A |---5---5-----5---5---|---5---5-----5---5---|
E |-3---------3---------|-5---------5---------|


Verse Riff


G |--------------------|-----------------|
D |--------------------|-----------------|
A |----------------3---|------5----------|
E |-3--3-3--3-3--3---3-|-5-------5-------|


Verse Ending Riff/Change

G |--------------------|-----------------|
D |--------------------|-----------------|
A |----------------3---|-7------7--5-----|
E |-3--3-3--3-3--3---3-|----5-7-------5--|

Listen closely to the changes.

Enjoy :)

Almost there ...

Sign in to get your own page with links to favourite songs and more. You are just one click away...

Login with Facebook Login with Google