Log in

One click and you are in

Login with Facebook Login with Google

Why sign up and log in

Guitar Tabs Explorer
Iron Maiden tabs for Sign of the cross

Intro

BAND:IRON MAIDEN
SONG:SIGN OF THE CROSS
ALBUM:THE X FACTOR
TABBED BY SEAN OLD
intro 1-chanting

intro 2- dave
bar 1
e-----------------------------------------------
b-----------------------------------------------
g-----------------------------------------------
d--9--7--9-10-9--7--9-10--9---------------------
a-----------------------------------------------
E-----------------------------------------------

e-----------------------------------------------
b-----------------------------------------------
g--------------------7--5-4---------------------
d--9--7--9-10-9-10------------------------------
a-----------------------------------------------
E-----------------------------------------------

after repeat bar 1 then play
e-----------------------------------------------
b-----------------------------------------------
g-----------------------------------------------
d--9--7--9-10-9--7--9-10--9---------------------
a----------------------------9-10-11--10-11-10-11
E-----------------------------------------------

play this a few times.on last time to end play.
e-----------------------------------------------
b-----------------------------------------------
g-----------------------------------------------
d--9--7--9-10-9--7--9-10--9---------------------
a----------------------------9-10-11--10-11-10-9
E-----------------------------------------------

THE BASS LINE FOR THIS:
G-----------------------------------------------
D-----------------------------------------------
A---0-2-3-2--0-2-3-2----0-2-3-2-3--5-3-2--------
E-0-------------------0-------------------------

BAR A chord diagramA augmentedA
G-----------------------------------------------
D-----------------------------------------------
A---0-2-3-2--0-2-3-2----------------------------
E-0--------------------0-2-3--2-3--2-3----------
play the bass line so it fits with the guitar.
play it the same amount of times as guitar.on last
time play this instead of bar A.

G------------------------------------------------
D------------------------------------------------
A---0-2-3-2--0-2-3-2-----------------------------
E-0--------------------0-2-3--2-3--2-0-----------

this is all i know at the moment. i will add the
rest when i work it out.

Other versions of Sign Of The Cross

Sign of the crossChords
Sign of the crossTabs
Sign of the cross (Ver. 2)Tabs

Almost there ...

Sign in to get your own page with links to favourite songs and more. You are just one click away...

Login with Facebook Login with Google