Log in

One click and you are in

Login with Facebook Login with Google

Why sign up and log in

Guitar Tabs Explorer
Iron Maiden tabs for Dont look to the eyes of a stranger

Don't Look To The Eyes Of A Stranger tab by Iron Maiden

Iron Maiden tabs for Dont look to the eyes of a stranger

Guitar tabs

Intro:

e|------------------------------|
A chord diagramBB|------------------------------|
A chord diagramG+G|--------------9------8------6-|
A chord diagramD MajorD|------6------9-9----8-8----6-6| Varias veces
A chord diagramA augmentedA|-----6-6-----------6------4---|
A chord diagramE MajorE|----4-----0-------------------|
Gtr 2

e|---------------------------------------|
A chord diagramBB|---------------------------------------|
A chord diagramG+G|-------------------------------6-8-6---|
A chord diagramD MajorD|---6-8-9--89-89-8-6-4--6-8-9-89------98|
A chord diagramA augmentedA|---------------------------------------| varias veces
A chord diagramE MajorE|---------------------------------------|


|-----------------------|
|-------------------8-7-|
|-----7-5---7-5-----8-7-|
|---7-----7-----7-5-----| Varias veces
|-----------------------|
|-----------------------|

|-------------------|
|-------------------|
|-------------------|
|----6xxxxx6---11--9|
|----6xxxxx6---9---7|
|----4xxxxx4--------|


Armando Cruz

guitargib2009@hotmail.com

Almost there ...

Sign in to get your own page with links to favourite songs and more. You are just one click away...

Login with Facebook Login with Google