Search tabs and chords

Browse bands and artists

A B C D E F G H I J K L M N O P Q R S T U V W X Y Z #

Log in

[ Register here | Forgot password ]

Guitar Tabs Explorer
Print

Guitar tabs :

Chilhoods End tab by Iron Maiden

E-|-----------------------------|---------------------------------------------|
B-|-----------------------------|---------------------------------------------|
G-|--------12--11---------------|---------12--11------14--12--11--------------|
D-|-9--14----------12--9--14----|--9--14----------12--------------14----------|
A-|-----------------------------|---------------------------------------------|
E-|-----------------------------|---------------------------------------------|


    Last time :
E-|---------------------------------------------------------------------------|
B-|---------------------------------------------------------------------------|
G-|--------12--11-------------------------------------------------------------|
D-|-9--14----------12--9------------------------------------------------------|
A-|---------------------------------------------------------------------------|
E-|---------------------------------------------------------------------------|

    3 times                           The 4th time
E-|---------------------------------|-----------------------------------------|
B-|-9--12--14--12--14--12--11--12---|--7--12--14--12--14--12--11--12----------|
G-|---------------------------------|-----------------------------------------|
D-|---------------------------------|-----------------------------------------|
A-|---------------------------------|-----------------------------------------|
E-|---------------------------------|-----------------------------------------|


   Verse :
E-|---------------------------------------------------------------------------|
B-|---------------------------------------------------------------------------|
G-|---------------------------------------------------------------------------|
D-|-9----------------7-------------5-----------4-----5------------------------|
A-|-7----------------5-------------3-----------2-----3------------------------|
E-|---------------------------------------------------------------------------|

   Chorus :
    3 times                           The 4th time
E-|---------------------------------|-----------------------------------------|
B-|-9--12--14--12--14--12--11--12---|--7--12--14--12--14--12--11--12----------|
G-|---------------------------------|-----------------------------------------|
D-|---------------------------------|-----------------------------------------|
A-|---------------------------------|-----------------------------------------|
E-|---------------------------------|-----------------------------------------|
    No Home , No life....

   Verse :
E-|---------------------------------------------------------------------------|
B-|---------------------------------------------------------------------------|
G-|---------------------------------------------------------------------------|
D-|-9----------------7-------------5-----------4-----5------------------------|
A-|-7----------------5-------------3-----------2-----3------------------------|
E-|---------------------------------------------------------------------------|


  Chorus :
    3 times                           The 4th time
E-|---------------------------------|-----------------------------------------|
B-|-9--12--14--12--14--12--11--12---|--7--12--14--12--14--12--11--12----------|
G-|---------------------------------|-----------------------------------------|
D-|---------------------------------|-----------------------------------------|
A-|---------------------------------|-----------------------------------------|
E-|---------------------------------|-----------------------------------------|


   Wheeeeaaaaaaaaaa :)
E-|---------------------------------------------------------------------------|
B-|-7---7--9--10--9--7-7---7--9--10--9-7-7--etc-------------------------------|
G-|---7------------------7----------------------------------------------------|
D-|---------------------------------------------------------------------------|
A-|---------------------------------------------------------------------------|
E-|---------------------------------------------------------------------------|


    Rythem for solo
E-|--------------------2--------|---------------------------------------------|
B-|--------------------3--------|---------------------------------------------|
G-|-7-----4------------2--------|-7------4-----2------------------------------|
D-|-7-----4-----2---------------|-7------4-----2------------------------------|
A-|-5-----2-----2---------------|-5------2-----0------------------------------|
E-|-------------0---------------|---------------------------------------------|


   I've splited this part into sections so lis10 to the song and learn it.
E-|----------------------|----------------------------------------------------|
B-|-7-7-9-10-12-10-9-7-5-|-9-9-10-12-14-12-10-9-7-----------------------------|
G-|----------------------|----------------------------------------------------|
D-|----------------------|----------------------------------------------------|
A-|----------------------|----------------------------------------------------|
E-|----------------------|----------------------------------------------------|


E-|------------|----------------|-14b--12--11--9---7--4(or5)------------------|
B-|-14-12-10-9-|-11-12-14-12-11-|---------------------------------------------|
G-|------------|----------------|---------------------------------------------|
D-|------------|----------------|---------------------------------------------|
A-|------------|----------------|---------------------------------------------|
E-|------------|----------------|---------------------------------------------|

   Verse :
E-|---------------------------------------------------------------------------|
B-|---------------------------------------------------------------------------|
G-|---------------------------------------------------------------------------|
D-|-9----------------7-------------5-----------4-----5------------------------|
A-|-7----------------5-------------3-----------2-----3------------------------|
E-|---------------------------------------------------------------------------|


  Chorus :
    3 times                           The 4th time
E-|---------------------------------|-----------------------------------------|
B-|-9--12--14--12--14--12--11--12---|--7--12--14--12--14--12--11--12----------|
G-|---------------------------------|-----------------------------------------|
D-|---------------------------------|-----------------------------------------|
A-|---------------------------------|-----------------------------------------|
E-|---------------------------------|-----------------------------------------|


    End of Song
E-|---------------------------------------------------------------------------|
B-|---------------------------------------------------------------------------|
G-|---------------------------------------------------------------------------|
D-|-7-7----9------------------------------------------------------------------|
A-|-5-5----7------------------------------------------------------------------|
E-|---------------------------------------------------------------------------|
    Childhood's End




_______________________________________________________
Contribuição: Anderson Rocha Pereira ES(xandao25@hotmail.com)

Comments

Iron Maiden guitar tabs for Chilhoods end