Log in

One click and you are in

Login with Facebook Login with Google

Why sign up and log in

Guitar Tabs Explorer
Donnie Iris guitar tabs for Thats the way love ought to be

That's The Way Love Ought To Be tab by Donnie Iris

Donnie Iris guitar tabs for Thats the way love ought to be

Guitar tabs with lyrics

Tuning: Standard (E A D G B E)



Intro
e|---------------------------------------------------------------------------|
B|-----7-7-6-6-4-4--7-7-6-6-4-4---7-7-6-6-4-4--7-7-6-6-4-4-------------------|
G|-----8-8-6-6-5-5--8-8-6-6-5-5---8-8-6-6-5-5--8-8-6-6-5-5-------------------|
D|---------------------------------------------------------------------------|
A|---------------------------------------------------------------------------|
E|---------------------------------------------------------------------------|
Verse 1
e|---------------------------------------------------------------------------|
B|----7-6-4---4-----------7-6-4--4-6-7----7-6-4-4----7-6-4------4-6-7--------|
G|----8-6-5---5-----------8-6-5--5-6-8----8-6-5-5----8-6-5------5-6-8--------|
D|---------------------------------------------------------------------------|
A|---------------------------------------------------------------------------|
E|---------------------------------------------------------------------------|
  You and me,baby,it's ecstasy,I will be true to you Be true to me That's all we


e|---------------------------------------------------------------------------|
B|---------------------------------------------------------------------------|
G|---------------------------------------------------------------------------|
D|---------------------------------------------------------------------------|
A|--2-2-2-2-2-2-2-2-2-2-2-2-2-2-2-2-2-2-2-2-2-2-2-2-2-2-2-2-2-2-2-2-2-2-2----|
E|--0-0-0-0-0-0-0-0-0-0-0-0-0-0-0-0-0-0-0-0-0-0-0-0-0-0-0-0-0-0-0-0-0-0-0----|
     need, no more               And we won't ever worry


e|---------------------------------------------------------------------------|
B|----7-6-4---4-----------7-6-4--4-6-7----7-6-4-4----7-6-4------------4-6-7--|
G|----8-6-5---5-----------8-6-5--5-6-8----8-6-5-5----8-6-5------------5-6-8--|
D|---------------------------------------------------------------------------|
A|---------------------------------------------------------------------------|
E|---------------------------------------------------------------------------|
Babe it's you. You are the one I love. You are the only one I'm thinking of Cause we all

e|---------------------------------------------------------------------------|
B|---------------------------------------------------------------------------|
G|---------------------------------------------------------------------------|
D|---------------------------------------------------------------------------|
A|--2-2-2-2-2-2-2-2-2-2-2-2-2-2-2-2-2-2-2-2-2-2-2-2-2-2-2-2-2-2-2-2-2-2-2----|
E|--0-0-0-0-0-0-0-0-0-0-0-0-0-0-0-0-0-0-0-0-0-0-0-0-0-0-0-0-0-0-0-0-0-0-0----|
              need somebody          We all need someone to love

Pre-Chorus

e|---------------------------------------------------------------------------|
B|---------------------------------------------------------------------------|
G|---------------------------------------------------------------------------|
D|-4---------------------------5----------------------6-------------4-----3--|
A|-4---------------------------5----------------------6-------------4-----3--|
E|-2---------------------------3----------------------4-------------2-----1--|
   Hey hey hey                Hey hey hey            Hey hey hey
         That's the way love ought to be                 Love is all we need

 Chorus
e|---------------------------------------------------------------------------|
B|---------------------------------------------------------------------------|
G|-6-----6-6-----5-5--3----5-------------------------------------------------|
D|-6-----6-6-----5-5--3----5-----------------------4---6---------------------|
A|-4-----4-4-----3-3--1----3-----------------------4---6---------------------|
E|-------------------------------------------------2---4---------------------|
    Cause whenever I'm around you  I'm happy that I've found you

e|-----------------------------------------------------------------------------|
B|-----------------------------------------------------------------------------|
G|-----------------------------------------------------------6-----------------|
D|------------------4---------------------6------------------6-----------------|
A|------------------4---------------------6------------------4-----------------|
E|------------------2---------------------4------------------------------------|
 Love is what you need   Look around and see It's everywhere around you

e|--------------------------------------------------------------------------|
B|--------------------------------------------------------------------------|
G|-6-----6-6-----5-5--3--------------5--------------------------------------|
D|-6-----6-6-----5-5--3--------------5-------4---------------------6--------|
A|-4-----4-4-----3-3--1--------------3-------4---------------------6--------|
E|-------------------------------------------2---------------------4--------|
                 Girl I'm living in a fantasy And it's bringing out the best in me
 Whenever I’m around

e|-----------------------------------------------------------------------------|
B|-----------------------------------------------------------------------------|
G|----------------------------------------------------------------------6------|
D|------------------4---------------------6-----------------------------6------|
A|------------------4---------------------6-----------------------------4------|
E|------------------2---------------------4------------------------------------|
      Love is what you need    Look around and see    That's the way love ought to be

e|-------------------------------|
B|-----7-7-6-6-4-4--7-7-6-6-4-4--|
G|-----8-8-6-6-5-5--8-8-6-6-5-5--|
D|-------------------------------|
A|-------------------------------|
E|-------------------------------|
                 Ow!

Verse 2
e|-------------------------------------------------------------------------------|
B|----7-6-4---4-----------7-6-4--4-6-7----7-6-4-4-----7-6-4----------------4-6-7-|
G|----8-6-5---5-----------8-6-5--5-6-8----8-6-5-5-----8-6-5----------------5-6-8-|
D|-------------------------------------------------------------------------------|
A|-------------------------------------------------------------------------------|
E|-------------------------------------------------------------------------------|
  Yes to me,You always say yes to me,And when I needed you so desperately You didn't

e|---------------------------------------------------------------------------|
B|---------------------------------------------------------------------------|
G|---------------------------------------------------------------------------|
D|---------------------------------------------------------------------------|
A|--2-2-2-2-2-2-2-2-2-2-2-2-2-2-2-2-2-2-2-2-2-2-2-2-2-2-2-2-2-2-2-2-2-2-2----|
E|--0-0-0-0-0-0-0-0-0-0-0-0-0-0-0-0-0-0-0-0-0-0-0-0-0-0-0-0-0-0-0-0-0-0-0----|
       waste no time            You always said you were mine

e|---------------------------------------------------------------------------|
B|----7-6-4---4-----------7-6-4--4-6-7----7-6-4-4-----7-6-4-----------4-6-7--|
G|----8-6-5---5-----------8-6-5--5-6-8----8-6-5-5-----8-6-5-----------5-6-8--|
D|---------------------------------------------------------------------------|
A|---------------------------------------------------------------------------|
E|---------------------------------------------------------------------------|
    No to me      You never say no to me  Somehow you know this is our destiny That we

e|---------------------------------------------------------------------------|
B|---------------------------------------------------------------------------|
G|---------------------------------------------------------------------------|
D|---------------------------------------------------------------------------|
A|--2-2-2-2-2-2-2-2-2-2-2-2-2-2-2-2-2-2-2-2-2-2-2-2-2-2-2-2-2-2-2-2-2-2-2----|
E|--0-0-0-0-0-0-0-0-0-0-0-0-0-0-0-0-0-0-0-0-0-0-0-0-0-0-0-0-0-0-0-0-0-0-0----|
              were meant to see         The way love ought to be

Pre-Chorus
e|---------------------------------------------------------------------------|
B|---------------------------------------------------------------------------|
G|---------------------------------------------------------------------------|
D|-4---------------------------5----------------------6-------------4-----3--|
A|-4---------------------------5----------------------6-------------4-----3--|
E|-2---------------------------3----------------------4-------------2-----1--|
   Hey hey hey                 Hey hey hey            Hey hey hey
         That's the way love ought to be                  Love is all we need


Chorus
e|---------------------------------------------------------------------------|
B|---------------------------------------------------------------------------|
G|-6-----6-6-----5-5--3----5-------------------------------------------------|
D|-6-----6-6-----5-5--3----5-----------------------4---6---------------------|
A|-4-----4-4-----3-3--1----3-----------------------4---6---------------------|
E|-------------------------------------------------2---4---------------------|
 Cause whenever I'm around you.I'm happy that I've found you

e|-----------------------------------------------------------------------------|
B|-----------------------------------------------------------------------------|
G|-----------------------------------------------------------6-----------------|
D|------------------4---------------------6------------------6-----------------|
A|------------------4---------------------6------------------4-----------------|
E|------------------2---------------------4------------------------------------|
      Love is what you need    Look around and see    It's everywhere around you

e|--------------------------------------------------------------------------|
B|--------------------------------------------------------------------------|
G|-6-----6-6-----5-5--3--------------5--------------------------------------|
D|-6-----6-6-----5-5--3--------------5-------4---------------------6--------|
A|-4-----4-4-----3-3--1--------------3-------4---------------------6--------|
E|-------------------------------------------2---------------------4--------|
  Girl I'm living in a fantasy   And it's bringing out the best in me
 Whenever I’m around

e|------------------------------------------------------------------------------|
B|------------------------------------------------------------------------------|
G|----------------------------------------------------------------------6-6-6-6-|
D|------------------4---------------------6-----------------------------6-6-6-6-|
A|------------------4---------------------6-----------------------------4-4-4-4-|
E|------------------2---------------------4-------------------------------------|
  Love is what you need    Look around and see    That's the way love ought to be

Breakdown
e|-------------------------------------------------------------------|
B|-----------------------------------2--2--2--2-2-2------------------|
G|-------------4---------------------1--3--1--4-4-3--4-6-4-6-4-4-6---|
D|--6\4-4------4----------------4--------------------4-6-4-6-4-4-6---|
A|--4\2-2-4-4-6----6\4-4--------4------------------------------------|
E|-----------------4\2-2--4-4-6--------------------------------------|
  And when your world comes tumbling down

e|--------------------------------------------------------------------|
B|--------------------------------------------------------------------|
G|---------------4-------------------6p4-----4h6p4-----4-4-4h6--------|
D|--6\4-4--------4---------------4---604-6---4h6p4-6---4-4-4h6--------|
A|--4\2-2--4-4-6------6\4-4------4-------6---------6------------------|
E|--------------------4\2-2-4-4-6-------------------------------------|
  I'm gonna turn your world around


e|----------------------------------------------------------------------|
B|------------------------------6--4-4-4---4-6-7-6----------------------|
G|-------------4----------------6--5-5-5---5-6-6-6----------------------|
D|--6\4-4------4-------------4------------------------------------------|
A|--4\2-2-4-4-6---6\4-4------4------------------------------------------|
E|----------------4\2-2-4-4-6-------------------------------------------|
  The secret lies inside of me


e|------------------------------------------------------------------------------|
B|------------------------------------------------------------------------------|
G|-------------4----------------------------------------------------------------|
D|--6\4-4------4-------------4--------------------------------------------------|
A|--4\2-2-4-4-6---6\4-4------4---2-2-2-2-2-2-2-2-2-2-2-2-2-2-2-2-2-2-2-2-2-2-2-2|
E|----------------4\2-2-4-4-6----0-0-0-0-0-0-0-0-0-0-0-0-0-0-0-0-0-0-0-0-0-0-0-0|
 And love is all we'll ever need. Come a little closer,little bit closer and kiss me


Chorus
e|---------------------------------------------------------------------------|
B|---------------------------------------------------------------------------|
G|-6-----6-6-----5-5--3----5-------------------------------------------------|
D|-6-----6-6-----5-5--3----5-----------------------4---6---------------------|
A|-4-----4-4-----3-3--1----3-----------------------4---6---------------------|
E|-------------------------------------------------2---4---------------------|
  Cause whenever I'm around you  I'm happy that I've found you

e|-----------------------------------------------------------------------------|
B|-----------------------------------------------------------------------------|
G|-----------------------------------------------------------6-----------------|
D|------------------4---------------------6------------------6-----------------|
A|------------------4---------------------6------------------4-----------------|
E|------------------2---------------------4------------------------------------|
  Love is what you need    Look around and see    It's everywhere around you


e|--------------------------------------------------------------------------|
B|--------------------------------------------------------------------------|
G|-6-----6-6-----5-5--3--------------5--------------------------------------|
D|-6-----6-6-----5-5--3--------------5-------4---------------------6--------|
A|-4-----4-4-----3-3--1--------------3-------4---------------------6--------|
E|-------------------------------------------2---------------------4--------|
      Girl I'm living in a fantasy   And it's bringing out the best in me
 Whenever I’m around

e|-----------------------------------------------------------------------------|
B|-----------------------------------------------------------------------------|
G|----------------------------------------------------------------------6------|
D|------------------4---------------------6-----------------------------6------|
A|------------------4---------------------6-----------------------------4------|
E|------------------2---------------------4------------------------------------|
   Love is what you need    Look around and see    That's the way love ought to be


************************************
| /   slide up
| \   slide down
| h   hammer-on
| p   pull-off
************************************

Almost there ...

Sign in to get your own page with links to favourite songs and more. You are just one click away...

Login with Facebook Login with Google