Search tabs and chords

Search for song, artist or band

Log in

One click and you are in

Login with Facebook Login with Google

Why sign up and log in

Guitar Tabs Explorer
Inxs guitar tabs for Need you tonight acoustic

Guitar tabs

Tuning: Standard (E chord diagramEE A chord diagramAA D chord diagramDD G chord diagramGG B chord diagramBB E chord diagramEE)

Key: C chord diagramCC

Difficulty: Intermediate

Intro:

e|-----------------------------|-11-11-11-10-10-8-8-8---x-x-x-x-|
B|-----------------------------|-8--8--8--8--8--8-8-8---x-x-x-x-|
G|---9--------9-------9--------|-8--8--8--8--8--8-8-8---x-x-x-x-|
D|---10-------10------10-------|------------------------x-x-x-x-| x4
A|---10-------10------10-------|------------------------x-x-x-x-|
E|---8--------8-------8--------|------------------------x-x-x-x-|

e|-----------------------------|--------------------------------|
B|-----------------------------|--------------------------------|
G|---9-----7---9--x--9--x--7---|--10----8--10-x-10-x-8----------|
D|---10----8---10-x--10-x--8---|--10----8--10-x-10-x-8----------|
A|---10----8---10-x--10-x--8---|--8-----6--8--x-8--x-6----------|
E|---8-----6---8--x--8--x--6---|--------------------------------|

e|-----------------------------|---------x-------------x--------|
B|-----------------------------|---------x-x-x-x-------x-x-x-x--|
G|---9-----7---9--x--9--x--7---|--10--x--x-x-x-x-x--x--x-x-x-x--|
D|---10----8---10-x--10-x--8---|--10--x--x-x-x-x-x--x--x-x-x-x--|
A|---10----8---10-x--10-x--8---|--8---x--x-x-x-x-x--x--x-x-x-x--|
E|---8-----6---8--x--8--x--6---|---------x-------------x--------|


Verse:

e|---------x-------------------|---------x----------------------|
B|---------x-------------------|---------x-x-x-x----------------|
G|-9---x---x-x-x-x-9--x-9--x-7-|-10--x---x-x-x-x-10--10--10--x--|
D|-10--x---x-x-x-x-10-x-10-x-8-|-10--x---x-x-x-x-10--10--10--x--| x4
A|-10--x---x-x-x-x-10-x-10-x-8-|-8---x---x-x-x-x-8---8---8---x--|
E|-8-------x-------8--x-8--x-6-|---------x----------------------|

Pre-Chorus:

e|-----------------------------|-11-11-11-10-10-8-8-8---x-x-x-x-|
B|-----------------------------|-8--8--8--8--8--8-8-8---x-x-x-x-|
G|---9--------9-------9--------|-8--8--8--8--8--8-8-8---x-x-x-x-|
D|---10-------10------10-------|------------------------x-x-x-x-| x4
A|---10-------10------10-------|------------------------x-x-x-x-|
E|---8--------8-------8--------|------------------------x-x-x-x-|


Chorus:

e|-----------------------------|----x-x-x-x-x-------------------|
B|-----------------------------|----x-x-x-x-x-------------------|
G|---9-----7---9--x--9--x--7---|-2--x-x-x-x-x--2--2--2-2--------|
D|---10----8---10-x--10-x--8---|-3--x-x-x-x-x--3--3--3-3--------|
A|---10----8---10-x--10-x--8---|-3--x-x-x-x-x--3--3--3-3--------|
E|---8-----6---8--x--8--x--6---|-1--x-x-x-x-x--1--1--1-1--------|

e|-------x--x-x-----x----x-----|----x-x-x-x-x-------------------|
B|-------x--x-x-----x----x-----|----x-x-x-x-x-------------------|
G|---9---x--x-x--9--x-9--x-7---|-2--x-x-x-x-x--2--2--2-2--------|
D|---10--x--x-x--10-x-10-x-8---|-3--x-x-x-x-x--3--3--3-3--------| x4
A|---10--x--x-x--10-x-10-x-8---|-3--x-x-x-x-x--3--3--3-3--------|
E|---8---x--x-x--8--x-8--x-6---|-1--x-x-x-x-x--1--1--1-1--------|


Pre-Chorus:

e|-----------------------------|-11-11-11-10-10-8-8-8---x-x-x-x-|
B|-----------------------------|-8--8--8--8--8--8-8-8---x-x-x-x-|
G|---9--------9-------9--------|-8--8--8--8--8--8-8-8---x-x-x-x-|
D|---10-------10------10-------|------------------------x-x-x-x-| x4
A|---10-------10------10-------|------------------------x-x-x-x-|
E|---8--------8-------8--------|------------------------x-x-x-x-|


Chorus:

e|-----------------------------|----x-x-x-x-x-------------------|
B|-----------------------------|----x-x-x-x-x-------------------|
G|---9-----7---9--x--9--x--7---|-2--x-x-x-x-x--2--2--2-2--------|
D|---10----8---10-x--10-x--8---|-3--x-x-x-x-x--3--3--3-3--------|
A|---10----8---10-x--10-x--8---|-3--x-x-x-x-x--3--3--3-3--------|
E|---8-----6---8--x--8--x--6---|-1--x-x-x-x-x--1--1--1-1--------|

e|-------x--x-x-----x----x-----|----x-x-x-x-x-------------------|
B|-------x--x-x-----x----x-----|----x-x-x-x-x-------------------|
G|---9---x--x-x--9--x-9--x-7---|-2--x-x-x-x-x--2--2--2-2--------|
D|---10--x--x-x--10-x-10-x-8---|-3--x-x-x-x-x--3--3--3-3--------| x7
A|---10--x--x-x--10-x-10-x-8---|-3--x-x-x-x-x--3--3--3-3--------|
E|---8---x--x-x--8--x-8--x-6---|-1--x-x-x-x-x--1--1--1-1--------|


Pre-Chorus:

e|-----------------------------|-11-11-11-10-10-8-8-8---x-x-x-x-|
B|-----------------------------|-8--8--8--8--8--8-8-8---x-x-x-x-|
G|---9--------9-------9--------|-8--8--8--8--8--8-8-8---x-x-x-x-|
D|---10-------10------10-------|------------------------x-x-x-x-| x4
A|---10-------10------10-------|------------------------x-x-x-x-|
E|---8--------8-------8--------|------------------------x-x-x-x-|


Chorus:

e|-----------------------------|----x-x-x-x-x-------------------|
B|-----------------------------|----x-x-x-x-x-------------------|
G|---9-----7---9--x--9--x--7---|-2--x-x-x-x-x--2--2--2-2--------|
D|---10----8---10-x--10-x--8---|-3--x-x-x-x-x--3--3--3-3--------|
A|---10----8---10-x--10-x--8---|-3--x-x-x-x-x--3--3--3-3--------|
E|---8-----6---8--x--8--x--6---|-1--x-x-x-x-x--1--1--1-1--------|

e|-------x--x-x-----x----x-----|----x-x-x-x-x-------------------|
B|-------x--x-x-----x----x-----|----x-x-x-x-x-------------------|
G|---9---x--x-x--9--x-9--x-7---|-2--x-x-x-x-x--2--2--2-2--------|
D|---10--x--x-x--10-x-10-x-8---|-3--x-x-x-x-x--3--3--3-3--------| x7
A|---10--x--x-x--10-x-10-x-8---|-3--x-x-x-x-x--3--3--3-3--------|
E|---8---x--x-x--8--x-8--x-6---|-1--x-x-x-x-x--1--1--1-1--------|


Outro:

e|-----------------------------|-11-11-11-10-10-8-8-8---x-x-x-x-|
B|-----------------------------|-8--8--8--8--8--8-8-8---x-x-x-x-|
G|---9--------9-------9--------|-8--8--8--8--8--8-8-8---x-x-x-x-|
D|---10-------10------10-------|------------------------x-x-x-x-| x4
A|---10-------10------10-------|------------------------x-x-x-x-|
E|---8--------8-------8--------|------------------------x-x-x-x-|


****************************

| x mute string

****************************

Other versions of Need You Tonight Acoustic

Need you tonightChords

Almost there ...

Sign in to get your own page with links to favourite songs and more. You are just one click away...

Login with Facebook Login with Google