Log in

One click and you are in

Login with Facebook Login with Google

Why sign up and log in

Guitar Tabs Explorer
The Interrupters bass tabs for Outrage

Bass tabs

  • Difficulty: Beginner
Tuning: Standard (E A D G)


Intro:
 A    D    A    D    F#m   E    D    A
G|----------------|----------------|----------------|----------------|
D|7-7-7-7---------|7-7-7-7---------|----------------|--------7-7-7-7-|
A|--------5-5-5-5-|--------5-5-5-5-|--------7-7-7-7-|5-5-5-5---------|
E|----------------|----------------|2-2-2-2---------|----------------|
 1 + 2 + 3 + 4 + |1 + 2 + 3 + 4 + |1 + 2 + 3 + 4 + |1 + 2 + 3 + 4 +


Verse, 0:06: Your eyes are glued...
 A    D    A    D    F#m   E    D    A
G|----------------|----------------|----------------|----------------|
D|7-7-7-7---------|7-7-7-7---------|4-4-4-4---------|----------------|
A|--------5-5-5-5-|--------5-5-5-7-|--------7-7-7-7-|5-5-5-5---------|
E|----------------|----------------|----------------|--------5-5-5-5-|
 1 + 2 + 3 + 4 + |1 + 2 + 3 + 4 + |1 + 2 + 3 + 4 + |1 + 2 + 3 + 4 +

 A    D    A    D    F#m   E    D    A
G|----------------|----------------|----------------|----------------|
D|7-7-7-7---------|7-7-7-7---------|4-4-4-4---------|----------------|
A|--------5-5-5-5-|--------5-5-5-7-|--------7-7-7-7-|5-5-5-5---------|
E|----------------|----------------|----------------|--------5-5-5-5-|
 1 + 2 + 3 + 4 + |1 + 2 + 3 + 4 + |1 + 2 + 3 + 4 + |1 + 2 + 3 + 4 +


Chorus, 0:18: They put a mask on...
 D    A    E    F#    D    A    E
G|----------------|----------------|----------------|----------------|
D|----------------|----------------|----------------|----------------|
A|5-5-5-5---------|7-7-7-7/9-9-9-7-|5-5-5-5---------|7-7-7-7-7-7-7-7-|
E|--------5-5-5-5-|----------------|--------5-5-5-5-|----------------|
 1 + 2 + 3 + 4 + |1 + 2 + 3 + 4 + |1 + 2 + 3 + 4 + |1 + 2 + 3 + 4 +
l
 D    A    C#   F#    D    A    E
G|----------------|----------------|----------------|----------------|
D|----------------|----------------|----------------|----------------|
A|5-5-5-5---------|4-4-4-4/9-9-9-7-|5-5-5-5---------|----------------|
E|--------5-5-5-5-|----------------|--------5-5-5-5-|0-0-0-----------|
 1 + 2 + 3 + 4 + |1 + 2 + 3 + 4 + |1 + 2 + 3 + 4 + |1 + 2 + 3 + 4 +

 A    D    A    D    F#m   E    D    A
G|----------------|----------------|-----------------|--------------------|
D|7-7-7-7---------|7-7-7-7---------|-----------------|--------------------|
A|--------5-5-5-5-|--------5-5-5-5-|--------/7-7-7-7-|5-5-5-5/12-12-12-12-|
E|----------------|----------------|2-2-2-2----------|--------------------|
 1 + 2 + 3 + 4 + |1 + 2 + 3 + 4 + |1 + 2 + 3 + 4 + |1 + 2 + 3 + 4 +

 A    D    A    D    F#m   E      D      A
G|----------------|----------------|-----------------|--------------------|
D|7-7-7-7---------|7-7-7-7---------|-----------------|--------------------|
A|--------5-5-5-5-|--------5-5-5-5-|--------/7-7-7-7-|5-5-5-5/12-12-12-12-|
E|----------------|----------------|2-2-2-2----------|--------------------|
 1 + 2 + 3 + 4 + |1 + 2 + 3 + 4 + |1 + 2 + 3 + 4 + |1 + 2 + 3 + 4 +

Verse, 0:43: A house of cards...
 A    D    A    D    F#m   E    D    A
G|----------------|----------------|----------------|----------------|
D|7-7-7-7---------|7-7-7-7---------|4-4-4-4---------|----------------|
A|--------5-5-5-5-|--------5-5-5-7-|--------7-7-7-7-|5-5-5-5---------|
E|----------------|----------------|----------------|--------5-5-5-5-|
 1 + 2 + 3 + 4 + |1 + 2 + 3 + 4 + |1 + 2 + 3 + 4 + |1 + 2 + 3 + 4 +

 A    D    A    D    F#m   E    D    A
G|----------------|----------------|----------------|----------------|
D|7-7-7-7---------|7-7-7-7---------|4-4-4-4---------|----------------|
A|--------5-5-5-5-|--------5-5-5-7-|--------7-7-7-7-|5-5-5-5---------|
E|----------------|----------------|----------------|--------5-5-5-5-|
 1 + 2 + 3 + 4 + |1 + 2 + 3 + 4 + |1 + 2 + 3 + 4 + |1 + 2 + 3 + 4 +


Chorus, 0:55: They put a mask on...
 D    A    E    F#    D    A    E
G|----------------|----------------|----------------|----------------|
D|----------------|----------------|----------------|----------------|
A|5-5-5-5---------|7-7-7-7/9-9-9-7-|5-5-5-5---------|7-7-7-7-7-7-7-7-|
E|--------5-5-5-5-|----------------|--------5-5-5-5-|----------------|
 1 + 2 + 3 + 4 + |1 + 2 + 3 + 4 + |1 + 2 + 3 + 4 + |1 + 2 + 3 + 4 +

 D    A    C#   F#    D    A    E
G|----------------|----------------|----------------|----------------|
D|----------------|----------------|----------------|----------------|
A|5-5-5-5---------|4-4-4-4/9-9-9-7-|5-5-5-5---------|----------------|
E|--------5-5-5-5-|----------------|--------5-5-5-5-|0-0-0-----------|
 1 + 2 + 3 + 4 + |1 + 2 + 3 + 4 + |1 + 2 + 3 + 4 + |1 + 2 + 3 + 4 +

 A    D    A    D    F#m   E    D    A
G|----------------|----------------|-----------------|--------------------|
D|7-7-7-7---------|7-7-7-7---------|-----------------|--------------------|
A|--------5-5-5-5-|--------5-5-5-5-|--------/7-7-7-7-|5-5-5-5-12-12-12-12-|
E|----------------|----------------|2-2-2-2----------|--------------------|
 1 + 2 + 3 + 4 + |1 + 2 + 3 + 4 + |1 + 2 + 3 + 4 + |1 + 2 + 3 + 4 +

 A    D    A    D    F#m   E    D    A
G|----------------|----------------|-----------------|-------------------|
D|7-7-7-7---------|7-7-7-7---------|-----------------|-------------------|
A|--------5-5-5-5-|--------5-5-5-5-|--------/7-7-7-7-|5-5-5-5-12-12-12-7-|
E|----------------|----------------|2-2-2-2----------|-------------------|
 1 + 2 + 3 + 4 + |1 + 2 + 3 + 4 + |1 + 2 + 3 + 4 + |1 + 2 + 3 + 4 +

Guitar solo, 1:19:
 D    A    E    F#    D    A    E
G|----------------|----------------|----------------|----------------|
D|----------------|--------4-4-4---|--------7-7-7-7-|----------------|
A|5-5-5-5---------|7-7-7-7-------7-|5-5-5-5---------|7-7-7-7-7-7-7-7-|
E|--------5-5-5-5-|----------------|----------------|----------------|
 1 + 2 + 3 + 4 + |1 + 2 + 3 + 4 + |1 + 2 + 3 + 4 + |1 + 2 + 3 + 4 +

 D    A    C#   F#    D    A    E
G|----------------|----------------|----------------|----------------|
D|----------------|--------4-4-4---|----------------|----------------|
A|5-5-5-5---------|4-4-4-4-------7-|5-5-5-5---------|----------------|
E|--------5-5-5-5-|----------------|--------5-5-5-5-|0-0-0-0-0-0-0-0-|
 1 + 2 + 3 + 4 + |1 + 2 + 3 + 4 + |1 + 2 + 3 + 4 + |1 + 2 + 3 + 4 +


Outro, 1:32: Ya! this is the end...
 A    D    A    D    F#m   E    D    A
G|----------------|----------------|----------------|----------------|
D|7-7-7-7---------|7-7-7-7---------|----------------|--------7\------|
A|--------5-5-5-5-|--------5-5-5-5-|--------7-7-7-7-|5-5-5-5---------|
E|----------------|----------------|2-2-2-2---------|----------------|
 1 + 2 + 3 + 4 + |1 + 2 + 3 + 4 + |1 + 2 + 3 + 4 + |1 + 2 + 3 + 4 +

 A    D    A    D    F#m   E    D    A
G|----------------|----------------|----------------|----------------|
D|7-7-7-7---------|7-7-7-7---------|----------------|--------7-7-7-7-|
A|--------5-5-5-5-|--------5-5-5-5-|--------7-7-7-7-|5-5-5-5---------|
E|----------------|----------------|2-2-2-2---------|----------------|
 1 + 2 + 3 + 4 + |1 + 2 + 3 + 4 + |1 + 2 + 3 + 4 + |1 + 2 + 3 + 4 +

 A    D    A    D    F#m   E    D    A
G|----------------|----------------|----------------|----------------|
D|----------------|7-7-7-7---------|----------------|----------------|
A|--------5-5-5-5-|--------5-5-5-5-|--------7-7-7-7-|5-5-5-5---------|
E|5-5-5-5---------|----------------|2-2-2-2---------|--------5.------|
 1 + 2 + 3 + 4 + |1 + 2 + 3 + 4 + |1 + 2 + 3 + 4 + |1 + 2 + 3 + 4 +

************************************

| /  Slide up
| \  Slide down
| n. Shortened note

************************************

Almost there ...

Sign in to get your own page with links to favourite songs and more. You are just one click away...

Login with Facebook Login with Google