Log in

One click and you are in

Login with Facebook Login with Google

Why sign up and log in

Guitar Tabs Explorer
Indochine bass tabs for 3 nuits par semaine

Bass tabs

INDOCHINE
3 nuits par semaine
TAB PAR Xot66
INTERPRETATION PERSONNELLE
INTRO:
G |-----------------|-----------------|-----------------|-----------------|
D |-----------------|-----------------|-----------------|-----------------|
A |--------S--------|--------S--------|--------S--------|--------S--------| (X3)
E |-----------------|-----------------|-----------------|-----------------|


COUPLET:
G |-----------------|-----------------|-----------------|-----------------|
D |-----------------|-----------------|-----------------|-----------------|
A |-5-5-5-5-5-5-5-5-|-----------------|-----------------|-----------------| (X8)
E |-----------------|-1-1-1-1-1-1-1-1-|-5-5-5-5-5-5-5-5-|-3-3-3-3-3-3-3-3-|


PRE-REFRAIN:
G |-----------------|-----------------|-----------------|-----------------|
D |-----------------|-----------------|-----------------|-----------------|
A |-----------------|---------3-3-----|-----------------|---------3-3-----|
E |-5-X----5----(5)-|--1-1-1----------|-5-X----5----(5)-|--1-1-1----------|


REFRAIN:
G |-----------------|-----------------|-----------------|-----------------|
D |-----------------|-----------------|-----------------|-----------------|
A |---------------6-|-6---6---6---6---|-----------------|-----------------| (X4)
E |-4---4---4---4---|---------------6-|-6---6---6---6-1-|-1---1---1---1-4-|


COUPLET:
G |-----------------|-----------------|-----------------|-----------------|
D |-----------------|-----------------|-----------------|-----------------|
A |-5-5-5-5-5-5-5-5-|-----------------|-----------------|-----------------| (X8)
E |-----------------|-1-1-1-1-1-1-1-1-|-5-5-5-5-5-5-5-5-|-3-3-3-3-3-3-3-3-|

PRE-REFRAIN:
G |-----------------|-----------------|-----------------|-----------------|
D |-----------------|-----------------|-----------------|-----------------|
A |-----------------|---------3-3-----|-----------------|---------3-3-----|
E |-5-X----5----(5)-|--1-1-1----------|-5-X----5----(5)-|--1-1-1----------|


REFRAIN:
G |-----------------|-----------------|-----------------|-----------------|
D |-----------------|-----------------|-----------------|-----------------|
A |---------------6-|-6---6---6---6---|-----------------|-----------------| (X4)
E |-4---4---4---4---|---------------6-|-6---6---6---6-1-|-1---1---1---1-4-|


PONT:
G |-----------------|-----------------|-----------------|-----------------|
D |-----------------|-----------------|-----------------|-----------------|
A |--------S--------|--------S--------|--------S--------|--------S--------| (X2)
E |-----------------|-----------------|-----------------|-----------------|

G |-----------------|-----------------|-----------------|-----------------|
D |-----------------|-----------------|-----------------|-----------------|
A |-5-5-5-5-5-5-5-8-|-8-8-8-8-8-8-8-0-|-0-0-0-0-0-0-0---|-----------------|
E |-----------------|-----------------|---------------3-|-3-3-3-3-3-3-3-3-|

G |-----------------|-----------------|-----------------|-----------------|
D |-----------------|-----------------|-----------------|-----------------|
A |-5-5-5-5-5-5-5-8-|-8-8-8-8-8-8-8-0-|-0-0-0-0-0-0-0---|-----------------|
E |-----------------|-----------------|---------------3-|-3-3-3-3-3-3-3-3-|


COUPLET:
G |-----------------|-----------------|-----------------|-----------------|
D |-----------------|-----------------|-----------------|-----------------|
A |-5-5-5-5-5-5-5-5-|-----------------|-----------------|-----------------| (X6)
E |-----------------|-1-1-1-1-1-1-1-1-|-5-5-5-5-5-5-5-5-|-3-3-3-3-3-3-3-3-|


PRE-REFRAIN:
G |-----------------|-----------------|-----------------|-----------------|
D |-----------------|-----------------|-----------------|-----------------|
A |-----------------|---------3-3-----|-----------------|---------3-3-----|
E |-5-X----5----(5)-|--1-1-1----------|-5-X----5----(5)-|--1-1-1----------|


REFRAIN:
G |-----------------|-----------------|-----------------|-----------------|
D |-----------------|-----------------|-----------------|-----------------|
A |---------------6-|-6---6---6---6---|-----------------|-----------------| (X4)
E |-4---4---4---4---|---------------6-|-6---6---6---6-1-|-1---1---1---1-4-|

FIN

Almost there ...

Sign in to get your own page with links to favourite songs and more. You are just one click away...

Login with Facebook Login with Google