Log in

One click and you are in

Login with Facebook Login with Google

Why sign up and log in

Guitar Tabs Explorer
Incubus tabs for Nice to know you

Guitar tabs

Steven <AaKoRnNut999@excite.com> and
"Francisco Barros" <chanchofbp@hotmail.com>

song: nice to know you
album: morning view.

Effects:
at the intro mix some reverb, delay, phaser, and a "volume in" effect that
some pedals call it "gate", then distortion.
at the prechorus play a clean sound but with some phaser( this is what
francisco barros thinks, i dont know if he is correct).
Intro/verse

riff 1|
|-0---|
|-10--|
|-11--|
|-----|
|-----|
|-----|


riff 2
|-7---|
|-10--|
|-11--|
|-----|
|-----|
|-----|


riff 3
|--------|
|--------|
|--------|
|--------|
|--------|
|*12*-2--|

* means that with you right hand you got to scratch the string from the 12th
fret
till the 2nd fret, where your left hand should be.

|-----------------------------------------------------------------|
|-----------------------------------------------------------------|
|---------7-7-7-7--------------------7-7-7-7----------------------|
|---4-4-4-7-7-7-7----4-4-4-----4-4-4-7-7-7-7----4-4-4-4/7-7-7-7---|
|---4-4-4-5-5-5-5----4-4-4-----4-4-4-5-5-5-5----4-4-4-4/7-7-7-7---|
|-0h2-2-2----------0h2-2-2---0h2-2-2----------0h2-2-2-2/5-5-5-5---|



bridge:"i havent felt the way..."

|-0-0-0-0--0-0-0-0--0-0-0-0--0-0-0-0--|
|-0-0-0-0--0-0-0-0--0-0-0-0--0-0-0-0--|
|-2-2-2-2--1-1-1-1--4-4-4-4--3-3-3-3--|
|-2-2-2-2--2-2-2-2--5-5-5-5--4-4-4-4--|
|-0-0-0-0--0-0-0-0--5-5-5-5--4-4-4-4--|
|-------------------3-3-3-3--2-2-2-2--|

Interlude:


|---------0----0--------------0----------------0-----|
|---------0----0---------------0-0-------------0-----|
|---------0----0-------------0---0-------------2-----|
|---------4----2------------4----2----2/4-4-4--2-----|
|-0-3-5-0-5----3---0-3-5-0-5-----3--0h3/5-5-5--0-----|
|----------------------------------------------------|



Ending:

					           "to know....you"
|---------------------------------------------------------------------|
|---------------------------------------------------------------------|
|---------7-7-7-7--------------------7-7-7-7-------------4-4-4-2------|
|---4-4-4-7-7-7-7----4-4-4-----4-4-4-7-7-7-7----4-4-4-4--4-4-4-2------|
|---4-4-4-5-5-5-5----4-4-4-----4-4-4-5-5-5-5----4-4-4-4--2-2-2-0------|
|-0h2-2-2----------0h2-2-2---0h2-2-2----------0h2-2-2-2---------------|

Other versions of Nice To Know You

Nice to know youChords

Almost there ...

Sign in to get your own page with links to favourite songs and more. You are just one click away...

Login with Facebook Login with Google