Log in

One click and you are in

Login with Facebook Login with Google

Why sign up and log in

Guitar Tabs Explorer
Incubus tabs for Morning view

Guitar tabs

SONG: Just a phase
BAND: INCUBUS
ALBUM: MORNING VIEW

TUNING: STANDARD
Intro: clean
e:------------------------------------2---------
B:----------------2--0----------------2---------
G:------------0----2--0-----0-------4-4*strum*--
D:--------0-5---0-------0-2---0----4--4---------
A:----0-4-----------------------0-2---2---------
E:--0-------------------------------------------


Intro/Bridge pt 1:
strumming
e:--0--2--0--
B:--0--2--0--
G:--1--4--1--
D:--2--4--2--
A:--2--2--2--
E:--0-----0--

Then play intro riff again


Intro/Bridge pt 2:
Srumming pattern not included (just
e:--0--2--0--2----- listen to the cd.
B:--0--2--0--2----- it's not complicated)
G:--1--4--1--4--3--
D:--2--4--2--4--4--
A:--2--2--2--2--1--
E:--0-----0--------

Verse:
                             /sweep\                           /sweep\
E:-------0----------------0-------4----------0----------------0-------4
B:-------0----------------0------4-----------0----------------0--------
G:------1-1--------------1-1----6-----------1-1--------------1-1-----6-
D:----2----2--4-5-4----2----2--6-----------2---2----4-5-4---2---2---6--
A:-----------5-----5----------4----4---6-----------5-----5---------4---
E:--0-------3--------0---------------4----0-------3--------0-----------


Pre-Chorus:
let notes ring
e:---------------         ---------------
B:---------------         ---------------
G:-----0---------         -----0---------
D:----6-6-------- x3 then ----6-6--------
A:---4---4-4--4--         ---4---4-4--4--
E:--5-----5--4---         --5-----5--8---


Chorus: muted
e:-----------------------------------
B:-----------------------------------
G:-----------------------------------
D:--5-5-5-6-6-2-2-7-7-7-7-7-5-5-5-5--
A:--3-3-3-6-6-2-2-7-7-7-7-7-5-5-5-5--
E:--3-3-3-4-4-0-0-5-5-5-5-5-3-3-3-3--


Verse

Pre-Chorus

Chorus


Chorus II:  distorted
e:----------------0-0-0-0-0-0-0-0-0--
B:----------------0-0-0-0-0-0-0-0-0--
G:--5-5-5-----1-1-6-6-6-6-6-4-4-4-4--
D:--5-5-5-6-6-2-2-7-7-7-7-7-5-5-5-5--
A:--3-3-3-6-6-2-2-7-7-7-7-7-5-5-5-5--
E:--3-3-3-4-4-0-0-5-5-5-5-5-3-3-3-3--

End on:
e:--0--
B:--0--
G:--6--
D:--7--
A:--7--
E:--5--

If you have any questions or comments email me at
silverchair_surfing_bird@hotmail.com

Almost there ...

Sign in to get your own page with links to favourite songs and more. You are just one click away...

Login with Facebook Login with Google