Log in

One click and you are in

Login with Facebook Login with Google

Why sign up and log in

Guitar Tabs Explorer
Incubus tabs for Mexico

Guitar tabs

Mexico
INCUBUS
Standard Tuning


Intro/Verse:
e------0-----0-----0-----0-----------------------0-----0----
B------0-----0-----0-----0-----------3-----3-----0-----0----
G----4-----4-------------------------3-----3----------------
D--2-----2-------5-----5-----------3-----3------------------
A--------------3-----3-----------1-----1-------3-----3------
E------------------------------0-------------1-----1-----0--

e------3-----3-----0-----0-----------------------0-----0----
B------0-----0-----0-----0-----------3-----3-----0-----0----
G----4-----4-------------------------3-----3----------------
D--2-----2-------5-----5-----------3-----3------------------
A--------------3-----3-----------1-----1-------3-----3------
E------------------------------0-------------1-----1-----0--


Chorus:
*strum      *       *   *
e---------(0)---------(0)-
B---------(0)-----(0)--0--
G-----0----4----0--0---2--
D----4-4---5---5---5---2--
A---2---2--5--3----3---0--
E--0-------3--------------

            *    *   *
e---------(0)--(0)-----
B---------(0)---0------
G-----0----4----2---5--
D----4-4---5----2---5--
A---2---2--5----0---3--
E--0-------3----0---3--

Bridge:
Strumming pattern not included
e-------------- just listen to the cd. It's
B-------------- not difficult
G--4--4--4--5--
D--5--1--4--5--
A--5--2--2--3--
E--3-----0--3--

Post-Bridge: Outro note:
Strum       * (sweep pick the last note
e----------  -0----  starting from the
B----------  -0----  high e string)
G--(0)--5--  -0----
D---2---2--  -0----
A---4---3--  -3----
E---5------  -1----

if you have any questions or comments, email me at
silverchair_surfing_bird@hotmail.com

Other versions of Mexico

MexicoChords
Mexico (Ver. 2)Tabs

Almost there ...

Sign in to get your own page with links to favourite songs and more. You are just one click away...

Login with Facebook Login with Google