Log in

One click and you are in

Login with Facebook Login with Google

Why sign up and log in

Guitar Tabs Explorer
Incubus tabs for Mexico (Ver. 2)

Guitar tabs with lyrics

INTRO
-------------------------------------------------
----7-------------------7-----------------------
-----------9------------------9-----------------
----------------9------------------9------------		x2
----------------0------------------0------------

---------------------------------------------------
----3-------------------3-------------------------
-----------5------------------5-------------------
---------------------------------------------------
----------------0------------------0--------------		x2
----------------0------------------0---------------

----6--------------------6-------------------------
---------8-------------------8---------------------
----------------------------------------------------
----------------0------------------0---------------		x2
----------------0------------------0---------------

----1---------------------1------------------------
---------3--------------------3--------------------
----------------------------------------------------
----------------------------------------------------
----------------0------------------0---------------		x2
----------------0------------------0---------------


-------------------------------------------------
----7-------------------7-----------------------
-----------9------------------9-----------------
----------------9------------------9------------
----------------8------------------8------------		x2
-------------------------------------------------

---------------------------------------------------
----3-------------------3-------------------------
-----------5------------------5-------------------
---------------------------------------------------
----------------0------------------0--------------		x2
----------------0------------------0---------------




----6--------------------6-------------------------
---------8-------------------8---------------------
----------------------------------------------------
----------------0------------------0---------------		x2
----------------0------------------0---------------

----1---------------------1------------------------
---------3--------------------3--------------------
----------------------------------------------------
----------------2------------------2---------------
-----------------------------------------------------		x2
----------------0------------------0---------------


CHORUS

----0---------------------------------------3-------
----------2----------------------2---------5----------
----------------4----------4---------------5-----------
----------------------0---------------------4---------
--------------------------------------------0--------
--------------------------------------------0--------

----3---------------------0--------------------------
----3---------------------0--------------------------
----5---------------------2--------------------------
----5---------------------2--------------------------
--------------------------0---------------------------
--------------------------0--------------------------


----0---------------------------------------3-----------
----------2----------------------2----------5-----------
----------------4----------4----------------5-----------
----------------------0---------------------4-----------
--------------------------------------------0-----------
--------------------------------------------0-----------

---6--------------6--------------0--------------------
------6-----------6--------------0--------------------
---------8--------8--------------2--------------------
------------8-----8--------------2--------------------
---------------------------------0--------------------
---------------------------------0--------------------

NOTES: I did not tab it note for note. This is just the basic chords, you must listen to the song and figure the strum and picking patterns as well as timing. I'm sorry for leaving the bridge out the chords are descending from jimmy page himself haha, very difficult to pick by ear. But the intro and chorus are correct to the note if you can pick up the timing and patterns from listening to the song. Please enjoy. (all credit and music is from INCUBUS)(I just submitted the tab) :D feel free to correct me or send me the bridge if you have it tabbed. Thank you.

Other versions of Mexico

MexicoChords
MexicoTabs

Almost there ...

Sign in to get your own page with links to favourite songs and more. You are just one click away...

Login with Facebook Login with Google