Log in

One click and you are in

Login with Facebook Login with Google

Why sign up and log in

Guitar Tabs Explorer
Incubus tabs for Made for t v  movie

Guitar tabs

Intro & Verse

e:------------------------------------------|
B:------------------------------------------|
G:-----0---------0---------0----------------|
D:---2---------5---------2---------5--------|
A:-3-----3---6-----6---3-----3---6-----5----|
E:-----------------------------------6------|
Chorus

Hello,im trying to focus but my eyes decieve me...

e:---xxxxxxxx--xxxxxxxx--xxxxxxx--xx--xx----|
B:---xxxxxxxx--xxxxxxxx--xxxxxxx--xx--xx----|
G:---xxxxxxxx--xxxxxxxx--xxxxxxx--xx--xx----|<2x
D:---xxxxxxxx--xxxxxxxx--5555555--77--xx----|
A:---55555555--22222222--3333333--55--88----|
E:---33333333--00000000--xxxxxxx--xx--66----|


1st solo

e:--5h7--12--7p5-5h7--10--3-5h7--12--7p5--3h5--2h3-2h3--0h2-0h2-----|
B:--------------------------------------------------------------3s5-|
G:------------------------------------------------------------------|
D:------------------------------------------------------------------|
A:------------------------------------------------------------------|
E:------------------------------------------------------------------|

this is pretty much the whole song but i havent figured out the 2nd solo...

Almost there ...

Sign in to get your own page with links to favourite songs and more. You are just one click away...

Login with Facebook Login with Google