Log in

One click and you are in

Login with Facebook Login with Google

Why sign up and log in

Guitar Tabs Explorer
Incubus chords for I wish you were here

Guitar chords

Band: Incubus
Album: Morning View
Tabbed by: Steven Carey (aakornnut999@excite.com)

Standard Tuning (A chord diagramE MajorE A chord diagramA augmentedA A chord diagramD MajorD A chord diagramG+G A chord diagramBB e)
Intro/Chorus:
(intro is clean but chorus is distorted)
(doesn't show stumming just chord progression, listen to song for beat)
e:--0---0---2---5---0--				----------
B:--0---0---2---5---0--				----------
G:--2---1---4---7---1-- (just before distorted) -9/11-11--
D:--2---2---4---7---2--				----------
A:--0---2---2---5---2--				-7/9--9---
E:------0---2---5---0--				----------


Verse:
(light distortion with delay set at 350)
e:------------------12------------------------------------
B:---------------------9-9h10------------------9----9h11--
G:--9h11-----------------------9h11-----------------------
D:--------11---9h11------------------11---9h11---11-------
A:--------------------------------------------------------
E:--------------------------------------------------------


Bridge:
(struming not shown)
e:---------------
B:---------------
G:----------3----
D:--9/ 11\7-4-7--
A:--7/-9-\5-4-5--
E:--5/-7-\3-2-3--

End on A chord diagramA5A5

Almost there ...

Sign in to get your own page with links to favourite songs and more. You are just one click away...

Login with Facebook Login with Google