Log in

One click and you are in

Login with Facebook Login with Google

Why sign up and log in

Guitar Tabs Explorer
Incubus bass tabs for Golden

Bass tabs

---------------------------------------------------------------------
			   Golden - Incubus
---------------------------------------------------------------------

Tabbed By: Thomas Harper
E-mail: Tomofwbury@hotmail.co.uk
Tuning: Standard

No bass for Intro

Bass comes in
"Verse 1" (0:31)

G|---------------------------------------------------------|
D|---------------------------------------------------------|
A|-0-0-----------------------------------------------------| x4
E|-----0-1-2-5-5----5-5-3-2-0---0-0-1-1-11h3p1-------------|

Chord interlude (1:00)

Bass comes back in
"Verse 2" (1:08)

G|--------------------------------------------------------|
D|--------------------------------------------------------|
A|-0-0-----0------------0-1-----0-0-----0----0-0-----0----| x4
E|-----0-3---0--3-3-0-3-------------0-3---0------0-3---0--|

"Verse 1" (1:37)

G|--------------------------------------------------------|
D|--------------------------------------------------------|
A|-0-0----------------------------------------------------| x4
E|-----0-1-2-5-5----5-5-3-2-0---0-0-1-1-11h3p1------------|

Chord interlude (2:07)

Bass comes back in
"Verse 2" (2:14)

G|--------------------------------------------------------|
D|--------------------------------------------------------|
A|-0-0-----0------------0-1-----0-0-----0----0-0-----0----| x4
E|-----0-3---0--3-3-0-3-------------0-3---0------0-3---0--|

"Verse 1" (2:44)

G|--------------------------------------------------------|
D|--------------------------------------------------------|
A|-0-0----------------------------------------------------| x4
E|-----0-1-2-5-5----5-5-3-2-0---0-0-1-1-11h3p1------------|

Chord interlude (3:13)

Bass comes back in
"Verse 2" (3:21)

G|--------------------------------------------------------|
D|--------------------------------------------------------|
A|-0-0-----0------------0-1-----0-0-----0----0-0-----0----| x4
E|-----0-3---0--3-3-0-3-------------0-3---0------0-3---0--|

"Verse 1" (3:50)

G|--------------------------------------------------------|
D|--------------------------------------------------------|
A|-0-0----------------------------------------------------| x4
E|-----0-1-2-5-5----5-5-3-2-0---0-0-1-1-11h3p1------------|

Chord outro (4:20)


| / slide up
| \ slide down
| h hammer-on
| p pull-off
| ~ vibrato
| + harmonic
| x Mute note

Almost there ...

Sign in to get your own page with links to favourite songs and more. You are just one click away...

Login with Facebook Login with Google