Log in

One click and you are in

Login with Facebook Login with Google

Why sign up and log in

Guitar Tabs Explorer
Incubus tabs for Follow

Guitar tabs

Song  : Follow
Tabs by -       ask_the_crackers@hotmail.com
Part 1

E---|---------------------------------------------------------|
B-9-|---------------------------------------------------------|
G-/-|-------------------------------------------12------------|
D-8-|----------12----------15----14~~~-12-14-15----15-14-12---|
A---|-12-14-15----15-14-12----12------------------------------|
E---|---------------------------------------------------------|
E---|-----------------------------------------------------------------------|
B-11|-----------------------------------------------------------------------|
G-/-|-------------------------------------------13----------14-12-----------|
D-8-|----------12----------15----14~~~-12-14-15----15-14-12-------15-14-----|
A---|-12-14-15----15-14-12----12--------------------------------------------|
E---|-----------------------------------------------------------------------|


Verse

E---|---5-------|-4------|-5-----|-5------4------|
B-4-|---5-------|-6------|-5-----|-5------5------|
G-/-|---5-------|-5------|-5-----|-5------4------|
D-4-|---7-------|--------|-------|-7------6------|
A---|-----------|--------|-------|---------------|
E---|-----------|--------|-------|---------------|


Chorus

E---|--------------|
B-7-|--------------|
G-/-|--2-----------|
D-8-|--2-----------|
A---|--0-----------|
E---|--------------|

E---|--------------|
B-7-|--------------|
G-/-|--5-----------|
D-8-|--5-----------|
A---|--3-----------|
E---|--------------|


E---|--------------|
B-7-|--------------|
G-/-|--2-----------|
D-8-|--2-----------|
A---|--0-----------|
E---|--------------|


E---|--------------------------------------|
B-4-|--------------------------------------|
G-/-|--------------------------------------|
D-4-|--3-------------------2---------------|
A---|--3-------------------2---------------|
E---|--1-------------------0---------------|


E---|--------------|
B-7-|--------------|
G-/-|--2-----------|
D-8-|--2-----------|
A---|--0-----------|
E---|--------------|


E---|--------------|
B-7-|--------------|
G-/-|--5-----------|
D-8-|--5-----------|
A---|--3-----------|
E---|--------------|

E---|--------------------------------------|
B-4-|--------------------------------------|
G-/-|--------------------------------------|
D-4-|--3-------------------2---------------|
A---|--3-------------------2---------------|
E---|--1-------------------0---------------|

Almost there ...

Sign in to get your own page with links to favourite songs and more. You are just one click away...

Login with Facebook Login with Google