Log in

One click and you are in

Login with Facebook Login with Google

Why sign up and log in

Guitar Tabs Explorer
Incubus tabs for Echo

Guitar tabs with lyrics

song: Echo
Album: Morning View

comments and questions are welcomed.
Note: I think in this song is very hard to get the ideas of what
does the guitar play. Because of this my tab will be probably wrong,
but anyway I tried to tab everything that i heard.
Turn tuning to dropped D


Intro:

|----0------------------------------------------------------|
|----0----------------------------3-------------------------|
|----7------------7/9--9br-7-7---4---4/7--7\4--4--4br--2--2-|
|----7--7~~--7/9--7/9--9br-9-9--4----4/7--7\4--4--4br--2--2-|
|---5---5/7--7/9--------------------------------------------|
|--0--------------------------------------------------------|


Verse:

|-0--0------------0----0-------| I didn't waste time figuring out
|-0----0----------3------3-----| the verse, just play the chords
|-7------7--------4--------4---| and improvise some arpeggio.
|-7--------7------4------------| Sometimes just play the chord
|-5---------------2------------|
|------------------------------|


Pre-Chorus:

|-2--2--2---1--1--1------------|
|-0--0--0---0--0--0------------|
|-4--4--4---2--2--2--....------|
|-5--5--5---3--3--3--....------|
|-5--5--5---3--3--3--....------|
|------------------------------|

Chorus:  play same thing as intro


Solo:
=====
To make your guitar sound similar to the one in the tape try to
low the tone or/and play it with wah-wah but keeping the pedal
down.

|-19-17-------------------------------------------------------|
|-------19-17-15-12----12-----------------------------15-17---|
|-------------------14--------------------------14-16---------|
|-----------------------------14-16-14----14-16---------------|
|-------------------------------------------------------------|
|-------------------------------------------------------------|

|----------------------------19-17----------------------------|
|-15---15-17-15-17-17/19-----------19-17----15----------------|
|----------------------------------------------16-14----------|
|-------------------------------------------------------------|
|-------------------------------------------------------------|
|-------------------------------------------------------------|

Play chorus again
and finish with this a few times
|-0---------------0----0-------|
|-0---------------0------0-----|
|-7---------------7--------7---|
|-7---------------7------------|
|-5---------------5------------|
|------------------------------|

That's all...

Almost there ...

Sign in to get your own page with links to favourite songs and more. You are just one click away...

Login with Facebook Login with Google