Log in

One click and you are in

Login with Facebook Login with Google

Why sign up and log in

Guitar Tabs Explorer
Incubus tabs for Drive live

Guitar tabs

Band: Incubus
Album: Make Yourself/The Morning View Sessions DVD
Tabbed By: GARY RUDDELL


INTRO/VERSE/CHORUS

I have indicated the notes that
should be played but you need to
listen to the song for the rhythm.

e:------0--0-------0--0--|
B:------8--7-------5--5--|
G:------0--7-------4--0--|
D:------9--5----5--5--5--|
A:---7--7--7--3----3--0--|
E:-0----x--x-------x--5--|

Repeat this until you get to the Pre-Chorus


PRE-CHORUS

       MAIN       ENDING
e:-0--0--0---0--|-0--0--|
B:-5--2--2p0-0--|-5--2--|
G:-4--0--0---0--|-4--0--|
D:-5--2--2---2--|-5--2--|
A:-3--0--0---0--|-3--0--|
E:-x--x--x---x--|-x--0--|


SOLO

Brandon whistles this on the live version

e:-----------7-5-3-5-----------------------------|
B:-3/5-5-5-5---------3-3/5-5-3-----3/5-5-3/5-5-3-|
G:-----------------------------4-4---------------|
D:-----------------------------------------------|
A:-----------------------------------------------|
E:-----------------------------------------------|

e:-3-5-5/7-7-5-7/10-7-5-7-3-------------5-5-3-3---------------|
B:--------------------------3h5-5-3-------------5-5-3---------|
G:----------------------------------4-4---------------4-2-2/4-|
D:------------------------------------------------------------|
A:------------------------------------------------------------|
E:------------------------------------------------------------|

Almost there ...

Sign in to get your own page with links to favourite songs and more. You are just one click away...

Login with Facebook Login with Google