Log in

One click and you are in

Login with Facebook Login with Google

Why sign up and log in

Guitar Tabs Explorer
Incubus chords for Drive

Guitar chords

Band: Incubus
Album: Make Yourself (1999)
		syed_naveed@yahoo.com
		ah4220@wayne.edu

(This is my first attempt so please be patient, i am not good at naming the
chords. Comments and suggestions welcome.)
Listen to the song to get the feel for strumming. The trick is
to play bass followed by treble and back to bass strings for every
chord.


Intro:
I think intro is repeated 3 times.
E----------7--7--7----7------------8---8---8--------------------
B----------8--8--8----7------------8---8---8--------------------
G----------7--7--7----7------------9---9---9--------------------
D----------9--9--9----9------------10--10--10-----0-0----2------
A----------10-10-10---9------------10--10--10-----2-2----2------
E---0--7---7--7--7----7-----0--8---8---8---8------3-3----0------

The main part of the song goes something like this:

E------3--3--3---------------7--------------8--8---3--3---------
B------3--3--3---------------7--------------8--8---3--3---------
G------4--4--4---------------7--------------9--9---4--4---------
D------5--5--5----9---------------------10---------5--5--2------
A------5--5--5----9---------------------10---------5--5--2------
E0--3--3--3--3----7--------------0--8---8----------3--3--0------


CHORUS: x2

E---3--------------------5-------------------------3------------
B---3--------------------5-------------------------3------------
G---4--------------------6-------------------------4------------
D---5--------------------7-------------------------5------------
A---5--------------------7-------------------------5------------
E---3--------------------5-------------------------3------------
....its driven me before....and it seems to have a vague

A chord diagramE minorEm
haunting mass appeal

End at A chord diagramE minorEm

Then
E------3--3--3---------------7--------------8--8---3--3---------
B------3--3--3---------------7--------------8--8---3--3---------
G------4--4--4---------------7--------------9--9---4--4---------
D------5--5--5----9---------------------10---------5--5--2------
A------5--5--5----9---------------------10---------5--5--2------
E0--3--3--3--3----7--------------0--8---8----------3--3--0------
.Whatever.........tomorrow..............brings.....i'll..be.....

E------3--3--3---------------7--------------8--8---3--3---------
B------3--3--3---------------7--------------8--8---3--3---------
G------4--4--4---------------7--------------9--9---4--4---------
D------5--5--5----9---------------------10---------5--5--2------
A------5--5--5----9---------------------10---------5--5--2------
E0--3--3--3--3----7--------------0--8---8----------3--3--0------
.......there......with open arms........and open...eyes yeah....


Ending
E----3-----5
B----3-----5
G----4-----6
D----5-----7
A----5-----7
E----3-----5

Other versions of Drive

Drive (Ver. 2)Chords
Drive acousticChords
DriveTabs
Drive liveTabs

Almost there ...

Sign in to get your own page with links to favourite songs and more. You are just one click away...

Login with Facebook Login with Google