Log in

One click and you are in

Login with Facebook Login with Google

Why sign up and log in

Guitar Tabs Explorer
Incubus bass tabs for Crowded elevator

Bass tabs

Intro:
G|-------------------------------------------------------|
D|------7---6------7---6-----------7---6-----7---6-------|
A|----5---7------5---7---7---7---5---7-----5---7---7---7—|
E|--0----------------------4---0---------------------4---|

G|--------------------------------------------------------------------------------------|
D|--------------------------------------------------------------------------------------|
A|-------5-----------5-------7---7-----------------------5-5-----5-5--------7-7-7/15----|
E|--0--0---5--4----0---5--4----4----3--0-1-0---1-1-0-3-3-------3-3-----0----------------|
Verse:
 Repeat three times,
G|-----14----13---13----------------|
D|--12----14-------14------------14-|
A|------------------11-11-9----11---|
E|----------------------------------|

 Then,
G|-----14----13---13----------------|
D|--12----14-------14---------------|
A|------------------11-11-9----7--7-|
E|----------------------------------|

 Repeat 3 times,
G|----------------------------------|
D|-----7-----6------6---------------|
A|--5-----7----------7------------7-|
E|--------------------4-4-2----4----|
Then,
G----------------------------------|
D-----7-----6------6---------------|
A--5-----7----------7----------3-5-|
E--------------------4-4-2----4----|

Pre-Chorus:
Repeat 3 Times,
G|----------------------------------|
D|----------------------------------|
A|—-7-7-7-3-3-3-3-2-2-2-2-0-0-0-0---|
E|----------------------------------|

 Then:
G|----------------------------------|
D|----------------------------------|
A|—-----------------5-5------5-5----|
E|—-0-0---------4-4-----4-4---------|
  s s


Chorus:
G|--------------------------------------------------------------|
D|------7-------------------------------------------------------|
A|----5---5-7-----5-5-----5-5-----------------------5-5-----5-5-|
E|—-0---------4-4-----4-4------3---0-1-0--1-1-0-3-3-----3-3-----|

G|-----------------------------------------------------------------------------|
D|------7----------------------------------------------------------------------|
A|----5---5-7-----5-5-----5-5-----------------------5-5-----5-5------7-7-7/15--|
E|—-0---------4-4-----4-4------3---0-1-0--1-1-0-3-3-----3-3-----0--------------|


Verse:
 Repeat three times,
G|-----14----13---13----------------|
D|--12----14-------14------------14-|
A|------------------11-11-9----11---|
E|----------------------------------|

 Then,
G|-----14----13---13----------------|
D|--12----14-------14---------------|
A|------------------11-11-9----7--7-|
E|----------------------------------|

 Repeat 3 times,
G|----------------------------------|
D|-----7-----6------6---------------|
A|--5-----7----------7------------7-|
E|--------------------4-4-2----4----|
Then,
G----------------------------------|
D-----7-----6------6---------------|
A--5-----7----------7----------3-5-|
E--------------------4-4-2----4----|


Pre-Chorus:
Repeat 3 Times,
G|----------------------------------|
D|----------------------------------|
A|—-7-7-7-3-3-3-3-2-2-2-2-0-0-0-0---|
E|----------------------------------|

 Then:
G|----------------------------------|
D|----------------------------------|
A|—-----------------5-5------5-5----|
E|—-0-0---------4-4-----4-4---------|
  s s


Chorus:
(4x):
G|--------------------------------------------------------------|
D|------7-------------------------------------------------------|
A|----5---5-7-----5-5-----5-5-----------------------5-5-----5-5-|
E|—-0---------4-4-----4-4------3---0-1-0--1-1-0-3-3-----3-3-----|


Bridge:
Repeat 8 Times
G|----------------------------------|
D|----------------5-5-5-5-----------|
A|—-------3-3-3-3---------6-6-6-6-6-|
E|--0-0-0---------------------------|


Pre-Chorus:
Repeat 3 Times,
G|----------------------------------|
D|----------------------------------|
A|—-7-7-7-3-3-3-3-2-2-2-2-0-0-0-0---|
E|----------------------------------|

 Then:
G|----------------------------------|
D|----------------------------------|
A|—-7-7-7-3-3-3-3-2-2-2-2-5-5-5-5-5-|
E|----------------------------------|


Chorus:
(4x):
G|--------------------------------------------------------------|
D|------7-------------------------------------------------------|
A|----5---5-7-----5-5-----5-5-----------------------5-5-----5-5-|
E|—-0---------4-4-----4-4------3---0-1-0--1-1-0-3-3-----3-3-----|


Outro:
G|-------------------------------------------------------|
D|------7---6------7---6-----------7---6-----7---6-------|
A|----5---7------5---7---7---7---5---7-----5---7---7---7—|
E|--0----------------------4---0---------------------4---|


G|----------------------------------------------------------------------|
D|----------------------------------------------------------------------|
A|-------5-----------5-------7---7-----------------------5-5-----5-5----|
E|--0--0---5--4----0---5--4----4----3--0-1-1---1-1-0-3-3------3-3-----0-|

Almost there ...

Sign in to get your own page with links to favourite songs and more. You are just one click away...

Login with Facebook Login with Google