Log in

One click and you are in

Login with Facebook Login with Google

Why sign up and log in

Guitar Tabs Explorer
Incubus chords for Consequence

Guitar chords

This is consequence, the 3rd track on Make Yourself by Incubus

Transcribed by dan of thousand suns
www.Thousandsuns.com
email: 1ksuns@home.com

 Intro/Verse
|-----------------------------------||
|-------------0--------------0-----o||
|----------13----13--------8---8-7--||
|-------12-------12------7-----7-6--||
|----11----------11----6-------6-5-o||
|-12-------------12--7---------7-6--||
CHorus      Bridge
|---------|----------||--|
|---------|----------||--|
|-9-------|-9---7----||--|
|-9--9--8-|-9-8-7-6--||--|
|-7--9--8-|-7-8-5-6--||--|
|-7--7--6-|---6---4--||--|


* This file was generated with Power Tab Editor
- Get it at http://home.tct.net/~blarsen *

Other versions of Consequence

ConsequenceTabs

Almost there ...

Sign in to get your own page with links to favourite songs and more. You are just one click away...

Login with Facebook Login with Google