Log in

One click and you are in

Login with Facebook Login with Google

Why sign up and log in

Guitar Tabs Explorer
Incubus tabs for Clean

Guitar tabs

Intro

e:-----------------|
B:-----------------|
G:-----------------|
D:-----------------| x4
A:--0h2-2-0-0h2-2--|
E:-----------------|

e:--------------7-7-7---------|
B:--------------7-7-7---------|
G:----------------------------|
D:--7/9---7/9-----------------|
A:--7/9---7/9-----------------|

Almost there ...

Sign in to get your own page with links to favourite songs and more. You are just one click away...

Login with Facebook Login with Google