Log in

One click and you are in

Login with Facebook Login with Google

Why sign up and log in

Guitar Tabs Explorer
Incubus tabs for Circles

Guitar tabs

Band: Incubus
Album: Morning View
Tabbed By: Steven Carey 10-2-01 (aakornnut999@excite.com)

Dropped A chord diagramD MajorD Tuning
Intro:
fade in with volume (either knob or pedal)
D:--(0)-/---/-/---/--/--/-/-/-/-///--
A:--(0)-/---/-/---/--/--/-/-/-/-///--
D:--(0)-/---/-/---/--/--/-/-/-/-///--

G:-------------------------    --------------------------
D:-------------------------    ------------------3h5-55--
A:------5-----5------3333-- x3 ------1-----1-----3h5-55--
D:--0-3---0-3---3-0--5555--    --0-3---0-3---3-0-3h5-55--

Fill:
e:---------------------------------------
B:---------------------------------------
G:---------------5--------------------5--
D:--00-xx-00-xx-05-00-xx-00-xx-00-xx-05--
A:--00-xx-00-xx-03-00-xx-00-xx-00-xx-03--
D:--00-xx-00-xx-0--00-xx-00-xx-00-xx-0---


Verse:
e:-----------------------------------------------------------------------------
B:-----------------------------------------------------------------------------
G:--7-7--7-7/17--7-7--7-7/17--17-17-17-17-12-12-12-12-20-20-20-20-12-12-12-12--
D:-----------------------------------------------------------------------------
A:--5-5--5-5/15--5-5--5-5/15--15-15-15-15-10-10-10-10-18-18-18-18-10-10-10-10--
D:-----------------------------------------------------------------------------

Pre-Chorus:
e:--------------
B:--------------
G:--------------
D:--0-0--55555--
A:--0-0--33333--
D:--0-0--55555--


Chorus:
e:---------------------
B:---------------------
G:----7---7---7--5555--    ---------------------
D:---------------5555-- x3 --33333333-88888888--
A:----5---5---5--3333--    --33333333-88888888--
D:--0---0---0----------    --33333333-88888888--


Bridge
e:--------1-----------1-----
B:--------1-----------1-----
G:--7-----3-----7-----3--3--
D:--5--0--3-----5--0--3--3--
A:--5--0--1-----5--0--1--1--
D:--5--0--------5--0-----3--

Other versions of Circles

CirclesChords

Almost there ...

Sign in to get your own page with links to favourite songs and more. You are just one click away...

Login with Facebook Login with Google