Log in

One click and you are in

Login with Facebook Login with Google

Why sign up and log in

Guitar Tabs Explorer
Incubus bass tabs for Are you in

Bass tabs

Album: Morning View
Tabbed By: Steven Carey & Menick (aakornnut999@excite.com)

Standard Tuning
Intro:
G:--14/16------14/16-----------
D:--14/16------14/16-----------
A:----------------------------- x2
E:----------------------14\\\--

Pre-Verse:
G:--14h16p14------
D:-----------16\--
A:----------------
E:----------------


Verse:           first ending     second ending
G:----------------------- ---------2-----4p2-- ------------------
D:----------------------- ----4---2--(2)------ ------------------
A:--5---5-2-0---2-------- -------------------- --2--2--0-0--2----
E:----------------0-2---- --2---2------------- ---------------0--


Chorus:
G:--------------------------------------------------------------------
D:---------------------------------------------------------------0-2--
A:--5-5-5-5-------------------------5-5-5-5------------------0-2------
E:----------5-5-5-5-2-2-2-2-2-2-2-2---------5-5-5-5-2-2-2-2-----------


Bridge:
G:-------------------------
D:---------5----7----------
A:--------7----9-----10-7--
E:--3-0--7----7----7-------

Almost there ...

Sign in to get your own page with links to favourite songs and more. You are just one click away...

Login with Facebook Login with Google