Log in

One click and you are in

Login with Facebook Login with Google

Why sign up and log in

Guitar Tabs Explorer
Incubus tabs for A certain shade of green  acoustic

A Certain Shade Of Green Acoustic tab by Incubus

Incubus tabs for A certain shade of green  acoustic

Guitar tabs

Band: Incubus
Tabbed by: Dan Mumford (godofwine@hotmail.com)


Standard tuning
Key:  4/6 = slide from 4 to 6
      14b = bend note from 14 to 15
     (x9) = repeat note 9 times
     9h10 = hammer on from 9 to 10
     10p9 = pull off from 10 to 9


Intro


e--------------------------------------------------2--2-2-2--2-2--2-2-2----------------------------  (x2)
B--7--7-7-7--7-7--7/8-8-8--7--7-7-7--7-7--7-7-7----3--3-3-3--3-3--3-3-3----3--3-3-3--3-3--3-3-3----
G--6--6-6-6--6-6--6/7-7-7--6--6-6-6--6-6--6-6-6----2--2-2-2--2-2--2-2-2----3--3-3-3--3-3--3-3-3----
D--7--7-7-7--7-7--7/8-8-8--7--7-7-7--7-7--7-7-7----4--4-4-4--4-4--4-4-4----3--3-3-3--3-3--3-3-3----
A--5--5-5-5--5-5--5/6-6-6--5--5-5-5--5-5--5-5-5----2--2-2-2--2-2--2-2-2----1--1-1-1--1-1--1-1-1----
E--------------------------------------------------------------------------------------------------


Verse


e--9----------9------9---9h10p9-8h9p8--7---7-----------5--------5-----  (x4)
B--10---------10-----10--101010-9-9-9--8---8---------7---7----6---6---
G--11---------11-----11----------------9---9-------6--------6---------
D---------------------------------------------------------------------
A---------------------------------------------------------------------
E---------------------------------------------------------------------


Chorus


e--------------------------------------------------2--2-2-2--2-2--2-2-2----------------------------  (x2)
B--7--7-7-7--7-7--7/8-8-8--7--7-7-7--7-7--7-7-7----3--3-3-3--3-3--3-3-3----3--3-3-3--3-3--3-3-3----
G--6--6-6-6--6-6--6/7-7-7--6--6-6-6--6-6--6-6-6----2--2-2-2--2-2--2-2-2----3--3-3-3--3-3--3-3-3----
D--7--7-7-7--7-7--7/8-8-8--7--7-7-7--7-7--7-7-7----4--4-4-4--4-4--4-4-4----3--3-3-3--3-3--3-3-3----
A--5--5-5-5--5-5--5/6-6-6--5--5-5-5--5-5--5-5-5----2--2-2-2--2-2--2-2-2----1--1-1-1--1-1--1-1-1----
E--------------------------------------------------------------------------------------------------


Solo


e--------------9-8-7-5---5-7-5----5-5--------------------------------------------------------------
B-------------------------------------8-7-5---7-5-3---3-5-5/7-5-3-5-3-5----6-6/8-6--6-5-5-3--------
G--------------------------------------------------------------------------------------------7/15--
D--4/6-4/6-----------------------------------------------------------------------------------------
A--------------------------------------------------------------------------------------------------
E--------------------------------------------------------------------------------------------------


e--9--10-9-10/12---12-12-12--10-9-10-9-------------------------------------------------------------
B--10------------------------------------12-14b-14--12-14-14h15-14h15-14--12-10-12--10-13-(x9)-----
G--11----------------------------------------------------------------------------------------------
D--------------------------------------------------------------------------------------------------
A--------------------------------------------------------------------------------------------------
E--------------------------------------------------------------------------------------------------


Verse


e--9----------9------9---9h10p9-8h9p8--7---7------------5--------5-----  (x4)
B--10---------10-----10--101010-9-9-9--8---8----------7---7----6---6---
G--11---------11-----11----------------9---9--------6--------6---------
D----------------------------------------------------------------------
A----------------------------------------------------------------------
E----------------------------------------------------------------------


Chorus


e--------------------------------------------------2--2-2-2--2-2--2-2-2----------------------------  (x2)
B--7--7-7-7--7-7--7/8-8-8--7--7-7-7--7-7--7-7-7----3--3-3-3--3-3--3-3-3----3--3-3-3--3-3--3-3-3----
G--6--6-6-6--6-6--6/7-7-7--6--6-6-6--6-6--6-6-6----2--2-2-2--2-2--2-2-2----3--3-3-3--3-3--3-3-3----
D--7--7-7-7--7-7--7/8-8-8--7--7-7-7--7-7--7-7-7----4--4-4-4--4-4--4-4-4----3--3-3-3--3-3--3-3-3----
A--5--5-5-5--5-5--5/6-6-6--5--5-5-5--5-5--5-5-5----2--2-2-2--2-2--2-2-2----1--1-1-1--1-1--1-1-1----
E--------------------------------------------------------------------------------------------------


Verse/DJ Instrumental


e--9----------9------9---9h10p9-8h9p8--7---7-----------5--------5-----  (x2)
B--10---------10-----10--101010-9-9-9--8---8---------7---7----6---6---
G--11---------11-----11----------------9---9-------6--------6---------
D---------------------------------------------------------------------
A---------------------------------------------------------------------
E---------------------------------------------------------------------


Chorus


e--------------------------------------------------2--2-2-2--2-2--2-2-2----------------------------  (x2)
B--7--7-7-7--7-7--7/8-8-8--7--7-7-7--7-7--7-7-7----3--3-3-3--3-3--3-3-3----3--3-3-3--3-3--3-3-3----
G--6--6-6-6--6-6--6/7-7-7--6--6-6-6--6-6--6-6-6----2--2-2-2--2-2--2-2-2----3--3-3-3--3-3--3-3-3----
D--7--7-7-7--7-7--7/8-8-8--7--7-7-7--7-7--7-7-7----4--4-4-4--4-4--4-4-4----3--3-3-3--3-3--3-3-3----
A--5--5-5-5--5-5--5/6-6-6--5--5-5-5--5-5--5-5-5----2--2-2-2--2-2--2-2-2----1--1-1-1--1-1--1-1-1----
E--------------------------------------------------------------------------------------------------


Outro


e--5--7--14----5----
B--------------7----
G--------------6----
D--------------7----
A--------------5----
E-------------------

Almost there ...

Sign in to get your own page with links to favourite songs and more. You are just one click away...

Login with Facebook Login with Google