Log in

One click and you are in

Login with Facebook Login with Google

Why sign up and log in

Guitar Tabs Explorer
Incubus bass tabs for 3rd movement of the odyssey

3rd Movement Of The Odyssey bass tab by Incubus

Incubus bass tabs for 3rd movement of the odyssey

Bass tabs

0:01
G|-----------------------------------------------------|
D|------------------/7--5----------------/7--5---------|
A|---5-/9--7------5------------5-/9--7-----------/9--7-|
E|-7------------7------------7-------------------------| x4

0:33
G|----------------------------------------------------------------------------------------------------|
D|-----4---------4------------4---------4------------------4---------4---------------4---------4------|
A|---5--7------5--7---------5--7------5--7---------------5--7------5--7------------5--7------5--7-----|
E|-7---------7-------0----7---------7-------0--0--0----7---------7-------0--0----7---------7-----0--0-|

0:49
G|-----------------------------------------------------|
D|------------------/7--5----------------/7--5---------|
A|---5-/9--7------5------------5-/9--7-----------/9--7-|
E|-7------------7------------7-------------------------| x4

1:21
G|---------------------------------------------------------------------------------------------------------|
D|-----4---------4-----------------4---------4--------------4---------4---------------4---------4----------|
A|---5--7------5--7--------------5--7------5--7-----------5--7------5--7------------5--7------5--7---------|
E|-7---------7-------0--0------7---------7-----0--0-----7---------7-------0--0----7---------7---------0----|

1:41
G|----------------------------------------------------------------------------------|
D|-------------/7--5----------------/7--5-----------------------------/7--5---------|
A|---5-/9--7-----------/9--7------5------------5-/9--7------5-/9--7-----------/9--7-|
E|-7----------------------------7------------7------------7-------------------------|

1:53
G|-----------------------------------------------------|
D|------------------/7--5----------------/7--5---------|
A|---5-/9--7------5------------5-/9--7-----------/9--7-|
E|-7------------7------------7-------------------------| x2

2:09
G|--------------------------------------------------------------|
D|------------------/7--5---------------------------------------|
A|---5-/9--7------5-------------/9--7-------5-------------------|
E|-7------------7------------------------------7---------3--0---|

2:36
G|-------------------------------------------------------------------------|
D|--------------------------------------5--5--5--5--5--5\------------------|
A|-6--6--6--6--6--6-5-3--3--3--3--3--3-------------------------------------|
E|--------------------------------------------------------3--3--3--3--3--3-|

2:48
G|----------------------------------------------------------------------------|
D|---------------------------------------------------------7h9------------/14-|
A|-6--6--6--6--6--6-5-3--3--3--3--3--3--2--2--2--2--2--2/---------------------|
E|----------------------------------------------------------------------------|

3:01
G|---------------------------------------------------------------------|
D|----------------------5/7---5---4/5-4--------------------------------|
A|------------/2--0---------------------7-----5/7--5-----------------2-|
E|-0---0-2-3------------------------------------------7--5---2---3-----|

3:13
G|-------------------------------------------------|
D|---------------------5/7-------------------------|
A|------------/2--0----------7---------------7---5-|
E|-0---0-2-3---------------------5---7---8---------|

3:28
G|-------------------------------------------------------------------------|
D|-/5--5--5--5--5--5--5--5--5--5--5--5--5--5--5--5--5--5--5--5--5--5--5--5-|
A|-------------------------------------------------------------------------|
E|-------------------------------------------------------------------------|

3:40
G|------------------------------------------------------------------------|
D|-------------------------------------5--5--5--5--5--5--5--5--5--5--5--5-|
A|-6--6--6--6--6--6--3--3--3--3--3--3-------------------------------------|
E|------------------------------------------------------------------------|

3:53
G|----------------------------------------------------------|
D|----------------------------------------------/9--9--9----|
A|-6--6--6--6--6--6--3--3--3--3--3--3--2--2--2/-------------|
E|--------------------------------------------------------7-|

4:05
G|--------------------------------------------------------------6--7-6-|
D|----------------------5/7---5---4/5-4--------------------7/9---------|
A|------------/2--0---------------------7---5/7--5---------------------|
E|-0---0-2-3----------------------------------------7--5---------------|

4:17
G|--------------------2----2-------------------------------------------|
D|-------2--5--2-------------------------------7/9-7-------------------|
A|----------------0------0--------------7--------------7--------5/7--5-|
E|-0---------------------------5---7--8-----8-------------8-5----------|

(for loops, see below, otherwise continue here)

4:58
G|------------------------|
D|------------------------|
A|-3--3--3--3--3--3--3--3-|
E|------------------------|  x24

5:47
G|------------------------------------------------------------|
D|-10--10--10--10--10--10--10--10--10--10--10--10--10--10-----|
A|---------------------------------------------------------10-|
E|------------------------------------------------------------|

5:51
G|------------------------|
D|------------------------|
A|------------------------|
E|-8--8--8--8--8--8--8--8-|  x11

6:14
G|--------------------------------------------------------------------------------|
D|----------------------/10--10--10--10--10--10--10--10--10--10--10--10--10-------|
A|--------------------------------------------------------------------------------|
E|-8--8--8--8--8--8-----------------------------------------------------------0-8-|




|------------------------------------------------------|
|---- IF YOU HAVE A LOOP PEDAL, TRY THIS FROM 4:33 ----|
|------------------------------------------------------|


4:33

G|-------------------------------------------------|
D|----------X-----------X-----------X-----X-----X--| 4x then loop
A|-X-----X-----X-----X-----X-----X-----X-----X-----|
E|-------------------------------------------------|

G|-------------------------------------------------|
D|-X--X--X--X--X--X--X--X--X--X--X--X--X--X--X--X--| 2x then loop
A|-X--X--X--X--X--X--X--X--X--X--X--X--X--X--X--X--|
E|-------------------------------------------------|

G|-------------------------------------------------|
D|-------------------------------------------------| 2x then loop
A|-3--3--3--3--3--3--3--3--3--3--3--3--3--3--3--3--|
E|-------------------------------------------------|


G|-------------17-17-------------------17-17-------|
D|-------17-17-------17-17-------17-17-------17-17-|
A|-19-19-------------------18-18-------------------|
E|-------------------------------------------------|

G|-------------17-17-------------------17-17-------|
D|-------17-17-------17-17-------17-17-------17-17-| loop
A|-20-20-------------------20-20-------------------|
E|-------------------------------------------------|

G|------------------------------------------------------------|
D|-14----14-12-10-------------10-------12-10------12-13-------|
A|-------------------------12---------------------------------|
E|------------------------------------------------------------|

G|--------------------------------------------------------------15-17-|
D|-14----14-12-10-------------10-------12-10------12-13---15-17-------| loop
A|-------------------------12-----------------------------------------|
E|--------------------------------------------------------------------|

G|------------------------------|-----------------------------|
D|-17----17-15-14---------------|-17----17-15-14--------------| loop
A|------------------------------|-----------------------------|
E|------------------------------|-----------------------------|

Almost there ...

Sign in to get your own page with links to favourite songs and more. You are just one click away...

Login with Facebook Login with Google