Log in

One click and you are in

Login with Facebook Login with Google

Why sign up and log in

Guitar Tabs Explorer
In This Moment bass tabs for Call me

Bass tabs

Tuning: Standard (E A D G)


intro: 0:02
G|--------------------------------------------------------------------------------|
D|--------------------------------------------------------------------------------|
A|-5-5-5-5--5-5-5-5--5-5-5-5--1-1-1--------5-5-5-5--5-5-5-5--5-5-5-5--1-1-1-3-3-3-|
E|-----------------------------------3-3-3----------------------------------------|

G|--------------------------------------------------------------------------------|
D|--------------------------------------------------------------------------------|
A|-5-5-5-5--5-5-5-5--5-5-5-5--1-1-1--------5-5-5-5--5-5-5-5--5-5-5-5--1-1-1-3-3-3-|
E|-----------------------------------3-3-3----------------------------------------|

verse 1: 0:15
G|----------------------------------------------------------------------------------|
D|----------------------------------------------------------------------------------|
A|-5--5-5--5-5--5-5--5-5--5-5--5-5--5-5--5--1--1-1--1-1--1-1--1-1--1-1--1-1--1-1--1-|
E|----------------------------------------------------------------------------------|

G|-----------------------------------------------------------------------|
D|-----------------------------------------------------------------------|
A|-5--5-5--5-5--5-5--5-5--5-5--5-5--5-5--5--1-1--1-1--1-1--1-------------|
E|------------------------------------------------------------6--5--3--2-|


 0:29
G|------------------------------------------------------------------|
D|------------------------------------------------------------------|
A|----------------------------------------------------------------3-|
E|-3--3-3--3-3--3-3-5--5-5--5-5--5-5--3--3-3--3-3--3-3-5--5-5--5----|

G|------------------------------------------------------------------------------------------------------|
D|------------------------------------------------------------------------------------------------------|
A|-5--5-5--5-5--5-5---------------------1-1--1-1--1--3--5--5-5--5-5--5-5--------------------1-1--1-1--1-|
E|-------------------1-1-1-1--3-3-3-3------------------------------------1-1-1-1--3-3-3-3---------------|


verse 2: 0:49
G|---------------------------------------------------------------------------------|
D|---------------------------------------------------------------------------------|
A|-5-5-5-5--5-5-5-5--5-5-5-5--1-1-1--------5-5-5-5--5-5-5-5--5-5-5-5--1-1-1-3-3-3--|
E|-----------------------------------3-3-3-----------------------------------------|

G|--------------------------------------------------------------------------------|
D|--------------------------------------------------------------------------------|
A|-5--5-5--5-5--5-5--5-5--5-5--5-5--5-5--5--1-1--1-1--1-1--1-1--1-1--1-1--1-1--1--|
E|--------------------------------------------------------------------------------|

G|--------------------------------------------------------------------------|
D|--------------------------------------------------------------------------|
A|-5--5-5--5-5--5-5--5-5--5-5--5-5--5-5--5--1--1-1--1-1--1-1--1-------------|
E|---------------------------------------------------------------6--5--3--2-|


 1:09
G|----------------------------------------------------------------------------------------|
D|----------------------------------------------------------------------------------------|
A|--------------------------------------------------------------------------------------3-|
E|-3--3-3--3-3--3-3-5--5-5--5-5--5-5--3--3-3--3-3--3-3-5--5-5--5-5--5-5--5-5--5-5--5-5----|

G|-----------------------------------------------------------------------------------------------------------|
D|-----------------------------------------------------------------------------------------------------------|
A|-5--5-5--5-5--5-5---------------------1--1--1-1--1-3--5--5-5--5-5--5-5--------------------1--1-1--1-1--1-1-|
E|-------------------1-1-1-1--3-3-3-3------------------------------------1-1-1-1--3-3-3-3--------------------|

G|-----------------------------------------|
D|-----------------------------------------|
A|-5-5-5-5--5-5-5-5--5-5-5-5--1-1-1--------|
E|-----------------------------------3-3-3-|


bridge: 1:34
G|----------------------------------------------------------------------------------|
D|----------------------------------------------------------------------------------|
A|-7--7-7--7-7--7-7--7-7--7-7--7-7--7-7--7------------------------------------------|
E|------------------------------------------7--7-7--7-7--7-7--7-7--7-7--7-7--7-7--7-| x2

G|----------------------------------------------------------------------------------|
D|----------------------------------------------------------------------------------|
A|-8--8-8--8-8--8-8--8-8--8-8--8-8--8-8--8------------------------------------------|
E|------------------------------------------8--8-8--8-8--8-8--8-8--8-8--8-8--8-8--8-| x2

G|-----------------------------------------------------------------------|
D|-----------------------------------------------------------------------|
A|-5--5-5--5-5--5-5--5-5--5-5--5-----------------------------------------|
E|-------------------------------6--6-6--6-6--6-6--6-6--6-6--6-6--6-6--6-|

G|-------------------------------------------------------------------------------------------------|
D|-------------------------------------------------------------------------------------------------|
A|-5--5-5--5-5--5-5--5-5--5-5--5-5--5-5--5-12--12-12--12-12--12-12--12-12--12-12-11-10-9-8-7-6-5-4-|
E|-------------------------------------------------------------------------------------------------|

G|--------------------------------------------------------------------------|
D|--------------------------------------------------------------------------|
A|-7--7-7--7-7--7-7--7-7--7-7--7-7--7-7--7----------------------------------|
E|------------------------------------------7--7-7--7-7--7-7--7--6--5--3--2-|

G|----------------------------------------------------------------------------------|
D|----------------------------------------------------------------------------------|
A|-7--7-7--7-7--7-7--7-7--7-7--7-7--7-7--7------------------------------------------|
E|------------------------------------------7--7-7--7-7--7-7--7-7--7-7--7-7--7-7--7-|

G|----------------------------------------------------------------------------|
D|----------------------------------------------------------------------------|
A|-8--8-8--8-8--8-8--8-8--8-8--8-8--8-8--8------------------------------------|
E|------------------------------------------8--8-8--8-8--8-8--8-8--8-8--8--15-|

G|-----------------------------------------------------------------------|
D|-----------------------------------------------------------------------|
A|-5--5-5--5-5--5-5--5-5--5-5--5-----------------------------------------|
E|-------------------------------6--6-6--6-6--6-6--6-6--6-6--6-6--6-6--6-|

G|-----------------------------------------------------------------------------|
D|-----------------------------------------------------------------------------|
A|-----------------------------------------------------------------------------|
E|-3--3-3--3-3--3-3--3-3--3-3--3-3--3-3--3--1-1-1--3-3-3--5-5-5--7-7-7--12~~12-|


G|---------------------------------------------------------|
D|---------------------------------------------------------|
A|-1-3-5--5-5--5-5--5-5---------------------1--1--1-1--1-3-|
E|-------------------1-1-1-1--3-3-3-3----------------------|

G|------------------------------------------------------|
D|------------------------------------------------------|
A|-5--5-5--5-5--5-5--------------------1--1-1--1-1--1-1-|
E|------------------1-1-1-1--3-3-3-3--------------------|

G|-----------------------------------------------------|
D|-----------------------------------------------------|
A|-3-5--5-5--5-5--5-5-------------------1--1--1-1--1-3-|
E|------------------1-1-1-1--3-3-3-3-------------------|

G|------------------------------------------------------|
D|------------------------------------------------------|
A|-5--5-5--5-5--5-5--------------------1--1-1--1-1--1-1-|
E|------------------1-1-1-1--3-3-3-3--------------------|


outro: 3:07
G|-----------------------------------------------------------------------------------|
D|-----------------------------------------------------------------------------------|
A|-5-5-5-5--5-5-5-5--5-5-5-5--1-1-1--------5-5-5-5--5-5-5-5--5-5-5-5--1-1-1-3-3-3--5-|
E|-----------------------------------3-3-3-------------------------------------------|


************************************

| ~  Vibrato

************************************

Almost there ...

Sign in to get your own page with links to favourite songs and more. You are just one click away...

Login with Facebook Login with Google