Log in

One click and you are in

Login with Facebook Login with Google

Why sign up and log in

Guitar Tabs Explorer
In Fear And Faith bass tabs for Live love die

Bass tabs with lyrics

LIVE LOVE DIE (Bassline)
As recorded by In Fear and Faith
(From the 2007 Album VOYAGE)

Transcribed by unregistered
Words and Music by In Fear and Faith

Gtr I (G) - 'Bass'
Gtr II (E) - 'SynthStrings'

 Intro
 Q=175
 5/8   4/4
 Gtr I
 E
|--------|------------------|--------------------|
|--------|------------------|--------------------|
|--------|------------------|--------------------|
|--------|--0-0-0-0-0-0-0-0-|---0--0-0-0-0-0-0-0-|
|
| Gtr II
| E  W         +W
|--------|-13---------------|-(13)---------------|
|--------|-15---------------|-(15)---------------|
|--------|-14---------------|-(14)---------------|
|--------|------------------|--------------------|
|--------|------------------|--------------------|
|--------|------------------|--------------------|


  E
|--------------------|--------------------|
|--------------------|--------------------|
|--------------------|--------------------|
|---0--0-0-0-0-0-0-0-|---0--0-0-0-0-0-0-0-|
|
| +W          +W
|-(13)---------------|-(13)---------------|
|-(15)---------------|-(15)---------------|
|-(14)---------------|-(14)---------------|
|--------------------|--------------------|
|--------------------|--------------------|
|--------------------|--------------------|

  E
|------------------|--------------------|
|------------------|--------------------|
|------------------|--------------------|
|--8-8-8-8-8-8-8-8-|---8--8-8-8-8-8-8-8-|
|
| W         +W
|-15---------------|-(15)---------------|
|-15---------------|-(15)---------------|
|-15---------------|-(15)---------------|
|------------------|--------------------|
|------------------|--------------------|
|------------------|--------------------|


  E
|------------------|--------------------|
|------------------|--------------------|
|------------------|--------------------|
|--7-7-7-7-7-7-7-7-|---7--7-7-7-7-7-7-7-|
|
| W         +W
|-13---------------|-(13)---------------|
|-10---------------|-(10)---------------|
|------------------|--------------------|
|------------------|--------------------|
|------------------|--------------------|
|------------------|--------------------|


  E
|------------------|--------------------|
|------------------|--------------------|
|------------------|--------------------|
|--0-0-0-0-0-0-0-0-|---0--0-0-0-0-0-0-0-|
|
| W         +W
|-13---------------|-(13)---------------|
|-15---------------|-(15)---------------|
|-14---------------|-(14)---------------|
|------------------|--------------------|
|------------------|--------------------|
|------------------|--------------------|


  E
|--------------------|--------------------|
|--------------------|--------------------|
|--------------------|--------------------|
|---0--0-0-0-0-0-0-0-|---0--0-0-0-0-0-0-0-|
|
| +W          +W
|-(13)---------------|-(13)---------------|
|-(15)---------------|-(15)---------------|
|-(14)---------------|-(14)---------------|
|--------------------|--------------------|
|--------------------|--------------------|
|--------------------|--------------------|


  E
|------------------|--------------------|
|------------------|--------------------|
|------------------|--------------------|
|--8-8-8-8-8-8-8-8-|---8--8-8-8-8-8-8-8-|
|
| W         +W
|-15---------------|-(15)---------------|
|-15---------------|-(15)---------------|
|-15---------------|-(15)---------------|
|------------------|--------------------|
|------------------|--------------------|
|------------------|--------------------|


  E  Wx2
|------------------|--------------------|--------||
|------------------|--------------------|--------||
|------------------|--------------------|--------||
|--7-7-7-7-7-7-7-7-|---7--7-7-7-7-7-7-7-|--------||
|
| W         +H     Wx2
|-13---------------|-(13)---------------|--------||
|-10---------------|-(10)---------------|--------||
|------------------|--------------------|--------||
|------------------|--------------------|--------||
|------------------|--------------------|--------||
|------------------|--------------------|--------||


 Verse
 E
|---------------------|----------------|---------------------|----------------|
|---------------------|----------------|---------------------|----------------|
|---------------------|----------------|---------------------|----------------|
|-0-0--(0)-0-0--------|---0--0-0--0--0-|-0-0--(0)-0-0--------|---0--0-0--0--0-|


 E
|---------------------|----------------|---------------------|----------------|
|---------------------|----------------|---------------------|----------------|
|---------------------|----------------|---------------------|----------------|
|-0-0--(0)-0-0--------|---0--0-0--0--0-|-0-0--(0)-0-0--------|---0--0-0--0--0-|


 E
|-----------------|-----------------|-----------------|-----------------|
|-----------------|-----------------|-----------------|-----------------|
|-1-1-1-1-1-1-1-1-|-1-1-1-1-1-1-1-1-|-3-3-3-3-3-3-3-3-|-3-3-3-3-3-3-3-3-|
|-----------------|-----------------|-----------------|-----------------|


 E
|---------------------|----------------|---------------------|----------------|
|---------------------|----------------|---------------------|----------------|
|---------------------|----------------|---------------------|----------------|
|-0-0--(0)-0-0--------|---0--0-0--0--0-|-0-0--(0)-0-0--------|---0--0-0--0--0-|


 E
|-----------------|-----------------|-----------------|-----------------|
|-----------------|-----------------|-----------------|-----------------|
|-1-1-1-1-1-1-1-1-|-1-1-1-1-1-1-1-1-|-3-3-3-3-3-3-3-3-|-3-3-3-3-3-3-3-3-|
|-----------------|-----------------|-----------------|-----------------|


 E
|---------------------|----------------|---------------------|----------------|
|---------------------|----------------|---------------------|----------------|
|---------------------|----------------|---------------------|----------------|
|-0-0--(0)-0-0--------|---0--0-0--0--0-|-0-0--(0)-0-0--------|---0--0-0--0--0-|


 E
|-----------------|-----------------|-----------------|-----------------||
|-----------------|-----------------|-----------------|-----------------||
|-1-1-1-1-1-1-1-1-|-1-1-1-1-1-1-1-1-|-3-3-3-3-3-3-3-3-|-3-3-3-3-3-3-3-3-||
|-----------------|-----------------|-----------------|-----------------||


 Bridge
 W     +W      +W      +W
|----------|------------|------------|------------|
|----------|------------|------------|------------|
|----------|------------|------------|------------|
|-0--------|-(0)--------|-(0)--------|-(0)--------|


 +W      +W      +W      +W
|------------|------------|------------|--------||
|------------|------------|------------|--------||
|------------|------------|------------|--------||
|-(0)--------|-(0)--------|-(0)--------|-(0)----||


 Pre-Chorus
 E
|-----------------|-----------------|-----------------|-----------------|
|-----------------|-----------------|-----------------|-----------------|
|-1-1-1-1-1-1-1-1-|-1-1-1-1-1-1-1-1-|-3-3-3-3-3-3-3-3-|-3-3-3-3-3-3-3-3-|
|-----------------|-----------------|-----------------|-----------------|


 E
|-----------------|-----------------|-----------------|-----------------|
|-----------------|-----------------|-----------------|-----------------|
|-----------------|-----------------|-----------------|-----------------|
|-0-0-0-0-0-0-0-0-|-0-0-0-0-0-0-0-0-|-0-0-0-0-0-0-0-0-|-0-0-0-0-0-0-0-0-|


 E
|-----------------|-----------------|-----------------|-----------------|
|-----------------|-----------------|-----------------|-----------------|
|-1-1-1-1-1-1-1-1-|-1-1-1-1-1-1-1-1-|-3-3-3-3-3-3-3-3-|-3-3-3-3-3-3-3-3-|
|-----------------|-----------------|-----------------|-----------------|


 E
|-----------------|-----------------|-----------------|-----------------||
|-----------------|-----------------|-----------------|-----------------||
|-----------------|-----------------|-----------------|-----------------||
|-0-0-0-0-0-0-0-0-|-0-0-0-0-0-0-0-0-|-0-0-0-0-0-0-0-0-|-0-0-0-0-0-0-0-0-||


 Chorus
  E
|------------------|--------------------|-----------------|-------------------|
|------------------|--------------------|-----------------|-------------------|
|--1-1-1-1-1-1-1-1-|---1--1-1-1-1-1-1-1-|-3-3-3-3-3-3-3-3-|--3--3-3-3-3-3-3-3-|
|------------------|--------------------|-----------------|-------------------|
|
| Gtr II
| W         +W         W         +W
|--6---------------|--(6)---------------|-8---------------|-(8)---------------|
|------------------|--------------------|-5---------------|-(5)---------------|
|-10---------------|-(10)---------------|-----------------|-------------------|
|------------------|--------------------|-----------------|-------------------|
|------------------|--------------------|-----------------|-------------------|
|------------------|--------------------|-----------------|-------------------|


 E
|-----------------|------------------|------------------|------------------|
|-----------------|------------------|------------------|------------------|
|-----------------|------------------|------------------|------------------|
|-0-0-0-0-0-0-0-0-|--0-0-0-0-0-0-0-0-|--0-0-0-0-0-0-0-0-|--3-3-3-3-3-3-3-3-|
|
| W         W         W         W
|-5---------------|-12---------------|-13---------------|-17---------------|
|-3---------------|------------------|------------------|------------------|
|-----------------|------------------|------------------|------------------|
|-----------------|------------------|------------------|------------------|
|-----------------|------------------|------------------|------------------|
|-----------------|------------------|------------------|------------------|


  E
|------------------|--------------------|
|------------------|--------------------|
|--1-1-1-1-1-1-1-1-|---1--1-1-1-1-1-1-1-|
|------------------|--------------------|
|
| W         +W
|-15---------------|-(15)---------------|
|------------------|--------------------|
|------------------|--------------------|
|------------------|--------------------|
|------------------|--------------------|
|------------------|--------------------|


  E
|------------------|--------------------|
|------------------|--------------------|
|--3-3-3-3-3-3-3-3-|---3--3-3-3-3-3-3-3-|
|------------------|--------------------|
|
| W         +W
|-13---------------|-(13)---------------|
|------------------|--------------------|
|------------------|--------------------|
|------------------|--------------------|
|------------------|--------------------|
|------------------|--------------------|


  E
|------------------|--------------------|
|------------------|--------------------|
|------------------|--------------------|
|--0-0-0-0-0-0-0-0-|---0--0-0-0-0-0-0-0-|
|
| W         +W
|-13---------------|-(13)---------------|
|------------------|--------------------|
|------------------|--------------------|
|------------------|--------------------|
|------------------|--------------------|
|------------------|--------------------|


  E
|------------------|--------------------||
|------------------|--------------------||
|------------------|--------------------||
|--0-0-0-0-0-0-0-0-|---0--0-0-0-0-0-0-0-||
|
| W         +W
|-10---------------|-(10)---------------||
|------------------|--------------------||
|--7---------------|--(7)---------------||
|------------------|--------------------||
|------------------|--------------------||
|------------------|--------------------||


 Verse
 Wx4      E
|------------|----------------------|--------------------|
|------------|----------------------|--------------------|
|------------|----------------------|--------------------|
|------------|--0-0--(0)-0-0--------|------0--0-0--0--0--|
|
| Wx4      W           +W
|------------|-17-------------------|-(17)---------------|
|------------|-18-------------------|-(18)---------------|
|------------|-14-------------------|-(14)---------------|
|------------|----------------------|--------------------|
|------------|----------------------|--------------------|
|------------|----------------------|--------------------|


  E
|------------------------|--------------------|
|------------------------|--------------------|
|------------------------|--------------------|
|---0--0--(0)-0-0--------|------0--0-0--0--0--|
|
| +W            +W
|-(17)-------------------|-(17)---------------|
|-(18)-------------------|-(18)---------------|
|-(14)-------------------|-(14)---------------|
|------------------------|--------------------|
|------------------------|--------------------|
|------------------------|--------------------|


 E
|-----------------|-----------------|-----------------|-----------------|
|-----------------|-----------------|-----------------|-----------------|
|-1-1-1-1-1-1-1-1-|-1-1-1-1-1-1-1-1-|-3-3-3-3-3-3-3-3-|-3-3-3-3-3-3-3-3-|
|-----------------|-----------------|-----------------|-----------------|


 E
|---------------------|----------------|---------------------|----------------|
|---------------------|----------------|---------------------|----------------|
|---------------------|----------------|---------------------|----------------|
|-0-0--(0)-0-0--------|---0--0-0--0--0-|-0-0--(0)-0-0--------|---0--0-0--0--0-|


 E
|-----------------|-----------------|-----------------|-----------------|
|-----------------|-----------------|-----------------|-----------------|
|-1-1-1-1-1-1-1-1-|-1-1-1-1-1-1-1-1-|-3-3-3-3-3-3-3-3-|-3-3-3-3-3-3-3-3-|
|-----------------|-----------------|-----------------|-----------------|


 E
|---------------------|----------------|---------------------|----------------|
|---------------------|----------------|---------------------|----------------|
|---------------------|----------------|---------------------|----------------|
|-0-0--(0)-0-0--------|---0--0-0--0--0-|-0-0--(0)-0-0--------|---0--0-0--0--0-|


 E
|-----------------|-----------------|-----------------|-----------------|
|-----------------|-----------------|-----------------|-----------------|
|-1-1-1-1-1-1-1-1-|-1-1-1-1-1-1-1-1-|-3-3-3-3-3-3-3-3-|-3-3-3-3-3-3-3-3-|
|-----------------|-----------------|-----------------|-----------------|


             Interlude
             1/8  4/4
 W     +W      +E  +W
|----------|------------||-----|------------|
|----------|------------||-----|------------|
|----------|------------||-----|------------|
|-0--------|-(0)--------||-(0)-|-(0)--------|


 +W      +W      Wx29
|------------|------------|---------||
|------------|------------|---------||
|------------|------------|---------||
|-(0)--------|-(0)--------|---------||


 Chorus
  E
|------------------|---------------------|
|------------------|---------------------|
|--1-1-1-1-1-1-1-1-|---1---1-1-1-1-1-1-3-|
|------------------|---------------------|
|
| Gtr II
| W         +H..       E
|--6---------------|--(6)--------------8-|
|------------------|-------------------5-|
|-10---------------|-(10)----------------|
|------------------|---------------------|
|------------------|---------------------|
|------------------|---------------------|


  E
|-------------------|--------------------|
|-------------------|--------------------|
|--3--3-3-3-3-3-3-3-|--3---3-3-3-3-3-3---|
|-------------------|------------------0-|
|
| +W         +H..       E
|-(8)---------------|-(8)--------------5-|
|-(5)---------------|-(5)--------------3-|
|-------------------|--------------------|
|-------------------|--------------------|
|-------------------|--------------------|
|-------------------|--------------------|


  E
|-------------------|---------------------|
|-------------------|---------------------|
|-------------------|---------------------|
|--0--0-0-0-0-0-0-0-|--0---0-0-0-0-0-0--0-|
|
| +W         +H..       E
|-(5)---------------|-(5)-----------------|
|-(3)---------------|-(3)--------------18-|
|-------------------|---------------------|
|-------------------|---------------------|
|-------------------|---------------------|
|-------------------|---------------------|


  E
|----------------------|----------------------|
|----------------------|----------------------|
|----------------------|--------------------1-|
|---0---0-0-0-0-0-0--3-|---3---3-3-3-3-3-3----|
|
| +E
|-------------------17-|-(17)--------------15-|
|-(18)-----------------|----------------------|
|----------------------|----------------------|
|----------------------|----------------------|
|----------------------|----------------------|
|----------------------|----------------------|


  E
|--------------------|----------------------|
|--------------------|----------------------|
|---1--1-1-1-1-1-1-1-|---1---1-1-1-1-1-1--3-|
|--------------------|----------------------|
|
| +W          +H..       E
|-(15)---------------|-(15)--------------13-|
|--------------------|----------------------|
|--------------------|----------------------|
|--------------------|----------------------|
|--------------------|----------------------|
|--------------------|----------------------|


  E
|--------------------|----------------------|
|--------------------|----------------------|
|---3--3-3-3-3-3-3-3-|---3---3-3-3-3-3-3----|
|--------------------|--------------------0-|
|
| +W          +H..       E
|-(13)---------------|-(13)--------------10-|
|--------------------|----------------------|
|--------------------|--------------------7-|
|--------------------|----------------------|
|--------------------|----------------------|
|--------------------|----------------------|


  E
|--------------------|----------------------|
|--------------------|----------------------|
|--------------------|----------------------|
|---0--0-0-0-0-0-0-0-|---0---0-0-0-0-0-0--0-|
|
| +W          +H..       E
|-(10)---------------|-(10)--------------10-|
|--------------------|----------------------|
|--(7)---------------|--(7)-----------------|
|--------------------|----------------------|
|--------------------|----------------------|
|--------------------|----------------------|


  E
|--------------------|----------------------|
|--------------------|----------------------|
|--------------------|--------------------1-|
|---0--0-0-0-0-0-0-0-|---0---0-0-0-0-0-0----|
|
| +W          +H..       E
|-(10)---------------|-(10)--------------15-|
|--------------------|----------------------|
|--------------------|-------------------12-|
|--------------------|----------------------|
|--------------------|----------------------|
|--------------------|----------------------|


  E
|--------------------|----------------------|
|--------------------|----------------------|
|---1--1-1-1-1-1-1-1-|---1---1-1-1-1-1-1--3-|
|--------------------|----------------------|
|
| +W          +H..       E
|-(15)---------------|-(15)--------------17-|
|--------------------|-------------------22-|
|-(12)---------------|-(12)-----------------|
|--------------------|----------------------|
|--------------------|----------------------|
|--------------------|----------------------|


  E
|--------------------|----------------------|
|--------------------|----------------------|
|---3--3-3-3-3-3-3-3-|---3---3-3-3-3-3-3----|
|--------------------|--------------------0-|
|
| +W          +H..       E
|-(17)---------------|-(17)--------------22-|
|-(22)---------------|-(22)-----------------|
|--------------------|----------------------|
|--------------------|----------------------|
|--------------------|----------------------|
|--------------------|----------------------|


  E
|--------------------|----------------------|
|--------------------|----------------------|
|--------------------|----------------------|
|---0--0-0-0-0-0-0-0-|---0---0-0-0-0-0-0--0-|
|
| +W          +H..       E
|-(22)---------------|-(22)--------------25-|
|--------------------|----------------------|
|--------------------|----------------------|
|--------------------|----------------------|
|--------------------|----------------------|
|--------------------|----------------------|


  E
|----------------------|----------------------|
|----------------------|----------------------|
|----------------------|--------------------1-|
|---0---0-0-0-0-0-0--3-|---3---3-3-3-3-3-3----|
|
| +E
|-(25)--------------27-|-(27)--------------25-|
|----------------------|----------------------|
|----------------------|----------------------|
|----------------------|----------------------|
|----------------------|----------------------|
|----------------------|----------------------|


  E
|--------------------|----------------------|
|--------------------|----------------------|
|---1--1-1-1-1-1-1-1-|---1---1-1-1-1-1-1--3-|
|--------------------|----------------------|
|
| +W          +H..       E
|-(25)---------------|-(25)--------------24-|
|--------------------|----------------------|
|--------------------|----------------------|
|--------------------|----------------------|
|--------------------|----------------------|
|--------------------|----------------------|


  E
|-----------------------------|------------------------|
|-----------------------------|------------------------|
|---3--3-----3-3-3-3-3-3------|---3---3-3-3-3-3-3------|
|-----------------------------|--------------------0---|
|
| +E
|-(24)---25--------------(25)-|-(25)--------------24---|
|-----------------------------|------------------------|
|-----------------------------|------------------------|
|-----------------------------|------------------------|
|-----------------------------|------------------------|
|-----------------------------|------------------------|


  E
|--------------------|----------------------|
|--------------------|----------------------|
|--------------------|----------------------|
|---0--0-0-0-0-0-0-0-|---0---0-0-0-0-0-0--0-|
|
| +W          +H..       E
|-(24)---------------|-(24)--------------22-|
|--------------------|----------------------|
|--------------------|----------------------|
|--------------------|----------------------|
|--------------------|----------------------|
|--------------------|----------------------|


  E
|--------------------|--------------------||
|--------------------|--------------------||
|--------------------|--------------------||
|---0--0-0-0-0-0-0-0-|---0--0-0-0-0-0-0-0-||
|
| +W          +W
|-(22)---------------|-(22)---------------||
|--------------------|--------------------||
|--------------------|--------------------||
|--------------------|--------------------||
|--------------------|--------------------||
|--------------------|--------------------||


 Outro
  +W      +W      +W      +W
|-------------|-------------|-------------|-------------|
|-------------|-------------|-------------|-------------|
|-------------|-------------|-------------|-------------|
|--(0)--------|--(0)--------|--(0)--------|--(0)--------|
|
|  >
| +W      +W      +W      +W
|-(22)--------|-(22)--------|-(22)--------|-(22)--------|
|-------------|-------------|-------------|-------------|
|-------------|-------------|-------------|-------------|
|-------------|-------------|-------------|-------------|
|-------------|-------------|-------------|-------------|
|-------------|-------------|-------------|-------------|


 +W      +W      +W      +W       W
|------------|-------------|-------------|-------------|---------|
|------------|-------------|-------------|-------------|---------|
|------------|-------------|-------------|-------------|---------|
|-(0)--------|--(0)--------|--(0)--------|--(0)--------|---------|
|
| W      +W      +W      +W      +W
|-22---------|-(22)--------|-(22)--------|-(22)--------|-(22)----|
|------------|-------------|-------------|-------------|---------|
|------------|-------------|-------------|-------------|---------|
|------------|-------------|-------------|-------------|---------|
|------------|-------------|-------------|-------------|---------|
|------------|-------------|-------------|-------------|---------|


 Gtr II
           >
 Wx11     H    +W      +W      +W
|-------------|------15----|-(15)--------|-(15)--------|-(15)----*|
|-------------|------------|-------------|-------------|---------*|
|-------------|------12----|-(12)--------|-(12)--------|-(12)----*|
|-------------|------------|-------------|-------------|---------*|
|-------------|------------|-------------|-------------|---------*|
|-------------|------------|-------------|-------------|---------*|


Duration 🏷Legend
---------------
W - whole; H - half; Q - quarter; E - 8th; S - 16th; T - 32nd; X - 64th; a - acciaccatura
+ - note tied to previous; . - note dotted; .. - note double dotted
Uncapitalized letters represent notes that are staccato (1/2 duration)
Irregular groupings are notated above the duration line
Duration letters will always appear directly above the note/fret number it represents the
duration for. Duration letters with no fret number below them represent rests. Multi-
bar rests are notated in the form Wxn, where n is the number of bars to rest for. Low
melody durations appear below the staff

Tablature 🏷Legend
----------------
 h  - hammer-on
 p  - pull-off
 b  - bend
 pb - pre-bend
 r  - bend release (if no number after the r, then release immediately)
 /\ - slide into or out of (from/to "nowhere")
 s  - legato slide
 S  - shift slide
<n> - natural harmonic
[n] - artificial harmonic
n(n) - tapped harmonic
 ~  - vibrato
 tr - trill
 T  - tap
 TP - trem. picking
 PM - palm muting
\n/ - tremolo bar dip; n = amount to dip
 \n - tremolo bar down
 n/ - tremolo bar up
/n\ - tremolo bar inverted dip
 =  - hold bend; also acts as connecting device for hammers/pulls
 <> - volume swell (louder/softer)
 x  - on rhythm slash represents muted slash
 o  - on rhythm slash represents single note slash

Misc 🏷Legend
-----------
 | - bar
|| - double bar
||o - repeat start
o|| - repeat end
*| - double bar (ending)
 : - bar (freetime)
 $ - Segno
 & - Coda
Tempo markers - <E/E./Q/Q./H/H.> = BPM(8/16=s8/s16), where s8 = swing 8ths, s16 = swing 16ths

Almost there ...

Sign in to get your own page with links to favourite songs and more. You are just one click away...

Login with Facebook Login with Google