Log in

One click and you are in

Login with Facebook Login with Google

Why sign up and log in

Guitar Tabs Explorer
Imagine Dragons bass tabs for Nothing left to say

Nothing Left To Say bass tab - Imagine Dragons

Imagine Dragons bass tabs for Nothing left to say

Bass tabs

Verse:
G|---------------------------------------|
D|---------------------------------------|
A|0------0---2-3/////8--------------7----|
E|-----------------------1////8----------|
Chorus:
G|---------------------------------------|
D|---------------------------------------|
A|0------0---2-3/////8--------------7----|
E|-----------------------1////8----------|


Verse:
G|---------------------------------------|
D|---------------------------------------|
A|0------0---2-3/////8--------------7----|
E|-----------------------1////8----------|


Chorus:
G|---------------------------------------|
D|---------------------------------------|
A|0------0---2-3/////8--------------7----|
E|-----------------------1////8----------|


Bridge:
(I keep falling)
(similar to the verse just change timing, follow the cello for rhythm)
G|---------------------------------------|
D|---------------------------------------|
A|0------0--2--3/////8--------------7--5-|
E|-----------------------1////8----------|


Outro:
(The outro is just strings and guitar, however once again, same riff and follow the cello for the timing)

Almost there ...

Sign in to get your own page with links to favourite songs and more. You are just one click away...

Login with Facebook Login with Google