Search tabs and chords

Browse bands and artists

A B C D E F G H I J K L M N O P Q R S T U V W X Y Z #

Log in

[ Register here | Forgot password ]

Guitar Tabs Explorer
Print

Believer bass tab by Imagine Dragons

Bass tabs

Imagine Dragons

Believer (bass tab)

Tuning: E# A# D# G#

Intro
E#|--------| 1x
A#|--12\---|
D#|--------|
G#|--------|


Verse 1
E#|----------------------------------------| 1x
A#|----------------------------------------|
D#|---7-7-7-7-7-7-7-7--3-3-3-3--6-6-6-6----|
G#|----5-5-5-5-5-5-5-5--5-5-5-5--4-4-4-4---|


Verse 2
E#|---------------------------------------------| 5x
A#|----0~---------------------------------------|
D#|----7-7-7-7-7-7-7-7--3-3-3-3--6-6-6-6--------|
G#|-----5-5-5-5-5-5-5-5--5-5-5-5--4-4-4-4-------|


Chorus
E#|---5~5-5-5-5-5-5-5----1~1-1-1-1-1-1---0-0-0-0---------------| 4x
A#|---------------------------------------------2-2------------|
D#|----------------------------------------------2-------------|
G#|------------------------------------------------------------|

Verse 2
E#|---------------------------------------------| 4x
A#|----0~---------------------------------------|
D#|----7-7-7-7-7-7-7-7--3-3-3-3--6-6-6-6--------|
G#|-----5-5-5-5-5-5-5-5--5-5-5-5--4-4-4-4-------|


Chorus
E#|---5~5-5-5-5-5-5-5----1~1-1-1-1-1-1---0-0-0-0---------------| 4x
A#|---------------------------------------------2-2------------|
D#|----------------------------------------------2-------------|
G#|------------------------------------------------------------|


Verse 1
E#|----------------------------------------| 2x
A#|----------------------------------------|
D#|---7-7-7-7-7-7-7-7--3-3-3-3--6-6-6-6----|
G#|----5-5-5-5-5-5-5-5--5-5-5-5--4-4-4-4---|


Bridge
E#|-1~--1-1-1~---3~4~---| 1x
A#|---------------------|
D#|---------------------|
G#|---------------------|


Chorus
E#|---5~5-5-5-5-5-5-5----1~1-1-1-1-1-1---0-0-0-0-----------------| 4x
A#|--------------------------------------------------------------|
D#|--------------------------------------------------------------|
G#|--------------------------------------------------------------|


************************************

| \  Slide down
| ~  Let it ring

Comments