Log in

One click and you are in

Login with Facebook Login with Google

Why sign up and log in

Guitar Tabs Explorer
Ilayaraja bass tabs for Ninnukori varnam

Bass tabs

Key: D


Intro:

G|------|----|------------|-------|------------|-----|------------|-------|------------|-----|
D|------|----|------------|-------|------------|-----|------------|-------|------------|-----|
A|5-5---|----|-----------5|2-4-2-4|-----------5|5-4-5|-----------5|2-4-2-4|-----------5|5-4-5|
E|------|----|5-2-3-5-2-5-|-------|5-2-3-5-2-5-|-7---|5-2-3-5-2-5-|-------|5-2-3-5-2-5-|-7---|

G|------------|--------------------|
D|--5-4--5--4-|5-4-----------------|
A|5-----5----5|-----5--------------|
E|------------|----7---7-9--3-5-3-5|
Pallavi:

G|-------------|-----4---|-------------|-----4---|-------|--------|-------|--------|
D|---5--4-5-7-5|4-----7-4|---5--4-5-7-5|4-----7-4|------5|--------|------5|--------|
A|5-5----------|-5--5----|5-5----------|-5--5----|2-2----|5-5--7-7|2-2----|5-5--7-7|
E|-------------|---------|-------------|---------|-3---3-|--------|-3---3-|--------|

G|--------4-7-4--|-------------|-----4---|-------------|-----4---|
D|---4-4-7-------|---5--4-5-7-5|4-----7-4|---5--4-5-7-5|4-----7-4|
A|5-7-7----------|5-5----------|-5--5----|5-5----------|-5--5----|
E|---------------|-------------|---------|-------------|---------|


Interlude 1:

G|-------|------|-----|--------|---------|--------|----------|---------------4s|
D|4-5-7-7|------|5--5-|-------4|5--5-4---|-------4|5--5-4---|-----------4s-5s--|
A|-------|------|-----|5-5-5-5-|--5-----4|5-5-5-5-|--5-----4|2-2-2-2--5s-------|
E|-------|------|-3--3|-5-5-5--|-------7-|-5-5-5--|-------7-|-2----------------|

G|-------------------|-------|------------|
D|-------------------|-------|---7-6-5----|
A|2-2-2-2-------5s-7s|5------|-5-------5-4|
E|-2-------5s-7s-----|---5-3-|5-----------|

Stanza:

G|--------------|-------------|--------------|-------------|------------|---------------|
D|--------------|-------2-4-2-|--------------|-------2-4-2-|5-----5-----|------------4-5|
A|2--5-4-2-2-0-4|2-0---5------|2--5-4-2-2-0-4|2-0---5------|---------5-4|2-2-2--4-5-7---|
E|--------3-----|---3---------|--------3-----|---3---------|-3-3---3----|-2-------------|

G|----------|-----------------|----------------------|-------------------|
D|5----5----|-----------------|----------------------|-------------------|
A|-------5-4|2--2-2--4-5-5-5-4|2--2-2--2s-4s-5s-7s-9s|7s--7s-9s-10s-9s-7s|
E|-3-3--3---|--2--------5-----|----------------------|-------------------|

G|----------------------|-------------------|---------|----------------------------|
D|----------------------|-------------------|---------|6s--------------------------|
A|2--2-2--2s-4s-5s-7s-9s|7s--7s-9s-10s-9s-7s|5---5-5-7|--9s-7s--7s-9s-7s------7s-7\|
E|----------------------|-------------------|---7-----|-------9s-------9s-7s-9s----|


Pallavi:

G|-------------|-----4---|-------------|-----4---|-------|--------|-------|--------|
D|---5--4-5-7-5|4-----7-4|---5--4-5-7-5|4-----7-4|------5|--------|------5|--------|
A|5-5----------|-5--5----|5-5----------|-5--5----|2-2----|5-5--7-7|2-2----|5-5--7-7|
E|-------------|---------|-------------|---------|-3---3-|--------|-3---3-|--------|

G|--------4-7-4--|-------------|-----4---|-------------|-----4---|
D|---4-4-7-------|---5--4-5-7-5|4-----7-4|---5--4-5-7-5|4-----7-4|
A|5-7-7----------|5-5----------|-5--5----|5-5----------|-5--5----|
E|---------------|-------------|---------|-------------|---------|

Interlude 2:

G|-----|-7-4-4-------|-7-4-4-------|-7-4-4-------|-7-4-4-------|-4-----2--|-7-7-7-7|
D|-----|----4-7---7-7|----4-7---7-7|----4-7---7-7|----4-7---7-7|--4-----2-|--------|
A|-----|5------5---5-|5------5---5-|5------5---5-|5------5---5-|2--5--0--2|5-5-5-5-|
E|-----|-------------|-------------|-------------|-------------|----------|--------|

G|-------4s-3s-2s|--2s-2s-----|-------4s-3s-2s|--2s-2s-----|
D|--0s-0s--------|------------|--0s-0s--------|------------|
A|2s-2s----------|-------0s-0s|2s-2s----------|-------0s-0s|
E|---------------|------------|---------------|------------|


Stanza:

G|--------------|-------------|--------------|-------------|------------|---------------|
D|--------------|-------2-4-2-|--------------|-------2-4-2-|5-----5-----|------------4-5|
A|2--5-4-2-2-0-4|2-0---5------|2--5-4-2-2-0-4|2-0---5------|---------5-4|2-2-2--4-5-7---|
E|--------3-----|---3---------|--------3-----|---3---------|-3-3---3----|-2-------------|

G|----------|-----------------|----------------------|-------------------|
D|5----5----|-----------------|----------------------|--9p---------------|
A|-------5-4|2--2-2--4-5-5-5-4|2--2-2--2s-4s-5s-7s-9s|7s--7s-9s-10s-9s-7s|
E|-3-3--3---|--2--------5-----|----------------------|-------------------|

G|----------------------|-------------------|---------|----------------------------|
D|----------------------|--9----------------|---------|6s--------------------------|
A|2--2-2--2s-4s-5s-7s-9s|7s--7s-9s-10s-9s-7s|5---5-5-7|--9s-7s--7s-9s-7s------7s-7\|
E|----------------------|-------------------|---7-----|-------9s-------9s-7s-9s----|


Pallavi:

G|-------------|-----4---|-------------|-----4---|-------|--------|-------|--------|
D|---5--4-5-7-5|4-----7-4|---5--4-5-7-5|4-----7-4|------5|--------|------5|--------|
A|5-5----------|-5--5----|5-5----------|-5--5----|2-2----|5-5--7-7|2-2----|5-5--7-7|
E|-------------|---------|-------------|---------|-3---3-|--------|-3---3-|--------|

G|--------4-7-4--|-------------|-----4---|-------------|-----4---|----|
D|---4-4-7-------|---5--4-5-7-5|4-----7-4|---5--4-5-7-5|4-----7-4|5---|
A|5-7-7----------|5-5----------|-5--5----|5-5----------|-5--5----|----|
E|---------------|-------------|---------|-------------|---------|----|


☠☠☠☠☠☠☠☠☠☠☠☠☠☠☠☠☠☠☠☠☠☠☠☠☠☠☠☠☠☠☠☠☠☠☠☠

|
| /  Slide up
| \  Slide down
| s  Slap
| P  Pop
|
☠☠☠☠☠☠☠☠☠☠☠☠☠☠☠☠☠☠☠☠☠☠☠☠☠☠☠☠☠☠☠☠☠☠☠☠

Almost there ...

Sign in to get your own page with links to favourite songs and more. You are just one click away...

Login with Facebook Login with Google