Log in

One click and you are in

Login with Facebook Login with Google

Why sign up and log in

Guitar Tabs Explorer
Ikue Sakakibara bass tabs for 不思議ね

Bass tabs

Tuning: Standard (E A D G)


Intro:
G|---------------------------|--------------------------|
D|-5--7-x-9-x-5-7--9--5-7---x|-3--5-x-7-x-3-5--7--3-5---|
A|---------------------------|--------------------------|
E|---------------------------|--------------------------|

G|----------|---------|--------|----------|
D|----------|-6-------|--------|----------|
A|--------6-|---------|-5------|----------|
E|-4--------|---------|--------|-3--------|
Verse 1:
G|-------------|-------------|-------------|-------2-----|
D|-----5-------|-----2-------|----------5--|-----5---5---|
A|-3------x-3-2|-0------x-3-0|-5------5---0|-3----------x|
E|-------------|-------------|-----3-------|-------------|

G|-------------|-------------|------------|------------|
D|-----5-------|-----2-------|------------|------------|
A|-3------x-3-2|-0------x-3-0|-5---5--5---|---------7--|
E|-------------|-------------|-----------5|-7-5-7------|

G|---------------------|--------------------|---------------|-----------|
D|-7-------7-5----4----|-3-------3-2--------|------2---3----|-5---------|
A|-------7-------------|-------3--------0---|-5--0---0---5-3|-----------|
E|---------------------|--------------------|---------------|------3----|


Verse 2:
G|-------------|------------|-------------|-------2-----|
D|-----5-------|--------2---|----------5--|-----5---5---|
A|-3------x-3-2|-0---0-----0|-5------5---0|-3----------0|
E|-------------|------------|-----3-------|-------------|

G|-------------|-------------|------------|-----------|
D|-------------|-----2-------|-----7------|-----------|
A|-3---3--x-3-2|-0------0-3-0|-5------5---|-----------|
E|-------------|-------------|-----------5|-7---7--0--|

G|---------------------|--------------------|--------------|-----------|
D|-7-------7-5----4----|-3-------3-2--------|----------5-5-|-----------|
A|-------7-------------|-------3--------0---|-0-5-3-5------|-3---------|
E|---------------------|--------------------|--------------|----------0|

Bridge:
G|-------------|---------------|----------|-----------------|
D|-----5------5|------5-------5|----------|-----------------|
A|-------------|------------5--|-3----5--0|-7---8--0-7-0-5-0|
E|-3-0----3-0--|-3--3---0-3----|----------|-----------------|

G|--------------|--------------|----------|---------------|
D|----5------5--|-----5--5/7-5-|----------|---------------|
A|--------------|---5----------|-3----1---|-0---0--2-0-4-0|
E|-3-----3-3---0|-3------------|----------|---------------|

G|-----------|----------|----------|-----------|
D|-----------|----------|----------|-----------|
A|-5-5--5----|----------|-6----5---|-4----3----|
E|-----------|-3-3---3--|----------|-----------|


Solo:
G|-----------|------------|------------|------------|
D|-----------|------------|------------|------------|
A|-----------|------------|------------|------------|
E|-4---4-4---|-4---4-4---4|-6---6-6---6|-6---6-6---6|

G|------------|------------|------------|------------|
D|------------|------------|------------|------------|
A|------------|------------|------------|------------|
E|-4---4-4---4|-4---4-4---4|-6---6-6---6|-6---6-6---5|

G|----------|---------|
D|----------|---------|
A|-5---5-5--|---------|
E|----------|-3-------|


Verse 3:
G|-------------|-------------|-------------|-----2-----2|
D|-----5-------|-----2-------|----------5--|--------5---|
A|-3------x-3-2|-0------0-3-0|-5------5---0|-3----------|
E|-------------|-------------|-----3-------|------------|

G|-------------|-------------|------------|------------|
D|-----5-------|-----2-------|--------7---|------------|
A|-3------x-3-2|-0------0-3-0|-5---5------|------------|
E|-------------|-------------|-----------5|-7-5-7---0--|

G|---------------------|--------------------|----------------|-----------|
D|-7-------7-5----4----|-3-------3-2--------|-------2---3----|-5---------|
A|-------7-------------|-------3--------0---|-0-5-0---0---5-3|-----------|
E|---------------------|--------------------|----------------|------3----|


Verse 4:
G|-------------|-------------|-------------|-------2-----|
D|-----5-------|-----2-------|----------5--|-----5---5---|
A|-3------x-3-2|-0------x-3-0|-5------5---0|-3----------0|
E|-------------|-------------|-----3-------|-------------|

G|------------|-------------|------------|------------|
D|-----5-----5|-----2-------|------------|------------|
A|-3------3---|-0------0-3-0|-5---5--5---|------------|
E|------------|-------------|-----------5|-7-5-7---0--|

G|---------------------|--------------------|--------------|-----------|
D|-7-------7-5----4----|-3-------3-2--------|-----7----5-5-|-----------|
A|-------7-------------|-------3--------0---|-0-5---5------|-3---------|
E|---------------------|--------------------|--------------|----------0|


Bridge:
G|------------|--------------|---------|-----------------|
D|-----5-----5|------5------5|---------|-----------------|
A|------------|-----------5--|-3----5--|-7---8--0-7-0-5-0|
E|-3-0----3---|-3--3----3----|---------|-----------------|

G|--------------|--------------|----------|---------------|
D|----5------5--|-----5--5/7-5-|----------|---------------|
A|--------------|---5----------|-3----1---|-0---0--2-0-4-0|
E|-3-----3-3---0|-3------------|----------|---------------|

G|-----------|-----------|
D|-----------|-----------|
A|-5-5--5----|-----------|
E|-----------|-3-3---3---|


Outro:
G|---------4--------4---------|-------------------------|
D|-5-5-7-5---5-5-7-----5-7---0|-3--5--7--3-5--7--3-5---3|
A|----------------------------|-------------------------|
E|----------------------------|-------------------------|

G|---------------------------|--------------------------|----------|
D|-5--7-x-9-x-5-7--9--5-7---0|-3--5-x-7-x-3-5--7--3-5---|----------|
A|---------------------------|--------------------------|-3---3---3|
E|---------------------------|--------------------------|----------|


************************************

| / Slide up
| x Dead note

************************************

Almost there ...

Sign in to get your own page with links to favourite songs and more. You are just one click away...

Login with Facebook Login with Google