Log in

One click and you are in

Login with Facebook Login with Google

Why sign up and log in

Guitar Tabs Explorer
Billy Idol tabs for Sweet sixteen

Guitar tabs with lyrics

SWEET SIXTEEN

As recorded by Billy Idol
(From the 1986 Album WHIPLASH SMILE)
Words and Music by Billy Idol

Transcribed by Slowhand


Gtr I (E A D G B E) - 'Billy Idol - Acoustic Guitar '
Gtr II (E A D G B E) - 'Steve Stevens - Electric Guitar'


 Intro
  Q=160
  A chord diagramAm7Am7
 4/4
  Gtr I
  Q  Q  Q  Q    Q  Q  A chord diagramE MajorE A chord diagramE MajorE Q    Q  Q  Q  Q    Q  Q  A chord diagramE MajorE A chord diagramE MajorE Q
|----3-----3--|----3----3-3--|----3-----3--|----3----3-3---||
|----1-----1--|----1----1-1--|----1-----1--|----1----1-1---||
|----2-----2--|----2----2-2--|----2-----2--|----2----2-2---||
|----2-----2--|----2----2-2--|----2-----2--|----2----2-2---||
|-0-----------|-0------------|-0-----------|-0-------------||
|-------0-----|-------0------|-------0-----|-------0-------||
  H     H       H     H        H     H       H     H


 1st Verse
  A chord diagramAm7Am7
  Q  Q  Q  Q    Q  Q  A chord diagramE MajorE A chord diagramE MajorE Q    Q     Q     Q     Q       Q  Q  A chord diagramE MajorE A chord diagramE MajorE Q
|----3-----3--|----3----3-3--|-------3-----------3----|-----3----3-3--|
|----1-----1--|----1----1-1--|-------1-----------1----|-----1----1-1--|
|----2-----2--|----2----2-2--|-------2-----------2----|-----2----2-2--|
|----2-----2--|----2----2-2--|-------2-----------2----|-----2----2-2--|
|-0-----------|-0------------|-0----------------------|--0------------|
|-------0-----|-------0------|-------------0----------|--------0------|
| H     H       H     H        H           H             H     H
|
| Gtr II
|                                                        ~~
| W             W              A chord diagramE MajorE  A chord diagramE MajorE  A chord diagramE MajorE  A chord diagramE MajorE  A chord diagramE MajorE  A chord diagramE MajorE  A chord diagramE MajorE  A chord diagramE MajorE    W
|-------------|--------------|---15p12----------------|---------------|
|-------------|--------------|---------13-12h13-12----|---------------|
|-------------|--------------|---------------------12-|---------------|
|-------------|--------------|------------------------|-14------------|
|-------------|--------------|------------------------|---------------|
|-------------|--------------|------------------------|---------------|

  Q     Q     Q     Q       Q  Q  A chord diagramE MajorE A chord diagramE MajorE Q
|-------3-----------3----|-----3----3-3--|
|-------1-----------1----|-----1----1-1--|
|-------2-----------2----|-----2----2-2--|
|-------2-----------2----|-----2----2-2--|
|-0----------------------|--0------------|
|-------------0----------|--------0------|
| H           H             H     H
|
|                           ~~
| A chord diagramE MajorE  A chord diagramE MajorE  A chord diagramE MajorE  A chord diagramE MajorE  A chord diagramE MajorE  A chord diagramE MajorE  A chord diagramE MajorE  A chord diagramE MajorE    W
|---15p12----------------|---------------|
|---------13-12h13-12----|---------------|
|---------------------12-|---------------|
|------------------------|-14------------|
|------------------------|---------------|
|------------------------|---------------|


  Q     Q     Q     Q       A chord diagramE MajorE A chord diagramE MajorE Q  H
|-------3-----------3----|--3-----------||
|-------1-----------1----|--1-----------||
|-------2-----------2----|--2-----------||
|-------2-----------2----|--2-----------||
|-0----------------------|--0-----------||
|-------------0----------|--------------||
| H           H
|
| A chord diagramE MajorE  A chord diagramE MajorE  A chord diagramE MajorE  A chord diagramE MajorE  A chord diagramE MajorE  A chord diagramE MajorE  A chord diagramE MajorE  A chord diagramE MajorE    A chord diagramE MajorE A chord diagramE MajorE Q  H
|---15p12----------------|--------------||
|---------13-12h13-12----|--------------||
|---------------------12-|--------------||
|------------------------|-14-----------||
|------------------------|--------------||
|------------------------|--------------||


 Pre-Chorus
  A chord diagramFF                             A chord diagramAm7Am7
  Q  Q  Q  A chord diagramE MajorE A chord diagramE MajorE   Q  Q  Q  A chord diagramE MajorE A chord diagramE MajorE   Q  Q  A chord diagramE MajorE A chord diagramE MajorE Q    Q  Q  A chord diagramE MajorE A chord diagramE MajorE Q
|----1-----1-1-|----1-----1-1-|----3----3-3--|----3----3-3--|
|----1-----1-1-|----1-----1-1-|----1----1-1--|----1----1-1--|
|----2-----2-2-|----2-----2-2-|----2----2-2--|----2----2-2--|
|----3-----3-3-|----3-----3-3-|----2----2-2--|----2----2-2--|
|-------3------|-------3------|-0------------|-0------------|
|-1------------|-1------------|-------0------|-------0------|
  H     H        H     H        H     H        H     H


  A chord diagramG+G                             A chord diagramAm7Am7
  Q  Q  A chord diagramE MajorE A chord diagramE MajorE Q    Q  Q  A chord diagramE MajorE A chord diagramE MajorE Q    Q  Q  A chord diagramE MajorE A chord diagramE MajorE Q    Q  Q  A chord diagramE MajorE A chord diagramE MajorE Q
|----3----3-3--|----3----3-3--|----3----3-3--|----3----3-3--|
|----0----0-0--|----0----0-0--|----1----1-1--|----1----1-1--|
|----0----0-0--|----0----0-0--|----2----2-2--|----2----2-2--|
|-------0------|-------0------|----2----2-2--|----2----2-2--|
|--------------|--------------|-0------------|-0------------|
|-3------------|-3------------|-------0------|-------0------|
  H     H        H     H        H     H        H     H


  A chord diagramFF                             A chord diagramG+G
  Q  Q  Q  A chord diagramE MajorE A chord diagramE MajorE   Q  Q  Q  A chord diagramE MajorE A chord diagramE MajorE   Q  Q  A chord diagramE MajorE A chord diagramE MajorE Q    W          +W
|----1-----1-1-|----1-----1-1-|----3----3-3--|-3--------|-(3)----||
|----1-----1-1-|----1-----1-1-|----0----0-0--|-0--------|-(0)----||
|----2-----2-2-|----2-----2-2-|----0----0-0--|-0--------|-(0)----||
|----3-----3-3-|----3-----3-3-|-------0------|-0--------|-(0)----||
|-------3------|-------3------|--------------|----------|--------||
|-1------------|-1------------|-3------------|-3--------|-(3)----||
  H     H        H     H        H     H


 Chorus
  A chord diagramFF               A chord diagramG+G               Amadd2
  Q  Q  A chord diagramE MajorE A chord diagramE MajorE A chord diagramE MajorE A chord diagramE MajorE   Q  Q  A chord diagramE MajorE A chord diagramE MajorE A chord diagramE MajorE A chord diagramE MajorE   Q  Q  A chord diagramE MajorE A chord diagramE MajorE A chord diagramE MajorE A chord diagramE MajorE   Q  Q  A chord diagramE MajorE A chord diagramE MajorE A chord diagramE MajorE A chord diagramE MajorE
|----1----1-1-1-|----3----3-3-3-|----0----0-0-0-|----0----0-0-0-|
|----1----1-1-1-|----0----0-0-0-|----0----0-0-0-|----0----0-0-0-|
|----2----2-2-2-|----0----0-0-0-|----5----5-5-5-|----5----5-5-5-|
|----3----3-3-3-|-------0-------|----7----7-7-7-|----7----7-7-7-|
|-------3-------|---------------|-0-------------|-0-------------|
|-1-------------|-3-------------|-------0-------|-------0-------|
  H     H         H     H         H     H         H     H


  A chord diagramFF               A chord diagramG+G               Amadd2
  Q  Q  A chord diagramE MajorE A chord diagramE MajorE A chord diagramE MajorE A chord diagramE MajorE   Q  Q  A chord diagramE MajorE A chord diagramE MajorE A chord diagramE MajorE A chord diagramE MajorE   Q  Q  A chord diagramE MajorE A chord diagramE MajorE A chord diagramE MajorE A chord diagramE MajorE   Q  Q  A chord diagramE MajorE A chord diagramE MajorE A chord diagramE MajorE A chord diagramE MajorE
|----1----1-1-1-|----3----3-3-3-|----0----0-0-0-|----0----0-0-0-||
|----1----1-1-1-|----0----0-0-0-|----0----0-0-0-|----0----0-0-0-||
|----2----2-2-2-|----0----0-0-0-|----5----5-5-5-|----5----5-5-5-||
|----3----3-3-3-|-------0-------|----7----7-7-7-|----7----7-7-7-||
|-------3-------|---------------|-0-------------|-0-------------||
|-1-------------|-3-------------|-------0-------|-------0-------||
  H     H         H     H         H     H         H     H


 2nd Verse
  Q  Q     Q     Q       Q     Q   A chord diagramE MajorE A chord diagramE MajorE Q    Q  Q  Q  Q    Q  Q  A chord diagramE MajorE A chord diagramE MajorE Q
|----3-----------3----|--------3-----3-3--|----3-----3--|----3----3-3--|
|----1-----------1----|--------1-----1-1--|----1-----1--|----1----1-1--|
|----2-----------2----|--------2-----2-2--|----2-----2--|----2----2-2--|
|----2-----------2----|--------2-----2-2--|----2-----2--|----2----2-2--|
|-0-------------------|--0----------------|-0-----------|-0------------|
|----------0----------|------------0------|-------0-----|-------0------|
| H        H             H         H        H     H       H     H
|
| Gtr II
|                              ~~~
| Q  A chord diagramE MajorE  A chord diagramE MajorE  A chord diagramE MajorE  A chord diagramE MajorE  A chord diagramE MajorE  A chord diagramE MajorE    A chord diagramE MajorE  A chord diagramE MajorE  H.           W             W
|------15p12----------|-------------------|-------------|--------------|
|------------13-12h13-|-12----------------|-------------|--------------|
|---------------------|----12-------------|-------------|--------------|
|---------------------|-------14----------|-------------|--------------|
|---------------------|-------------------|-------------|--------------|
|---------------------|-------------------|-------------|--------------|


  Q     Q     Q     Q       Q  Q  A chord diagramE MajorE A chord diagramE MajorE Q
|-------3-----------3----|-----3----3-3--|
|-------1-----------1----|-----1----1-1--|
|-------2-----------2----|-----2----2-2--|
|-------2-----------2----|-----2----2-2--|
|-0----------------------|--0------------|
|-------------0----------|--------0------|
| H           H             H     H
|
|                           ~~
| A chord diagramE MajorE  A chord diagramE MajorE  A chord diagramE MajorE  A chord diagramE MajorE  A chord diagramE MajorE  A chord diagramE MajorE  A chord diagramE MajorE  A chord diagramE MajorE    W
|---15p12----------------|---------------|
|---------13-12h13-12----|---------------|
|---------------------12-|---------------|
|------------------------|-14------------|
|------------------------|---------------|
|------------------------|---------------|


  Q     Q     Q     Q       A chord diagramE MajorE A chord diagramE MajorE Q  H
|-------3-----------3----|--3-----------||
|-------1-----------1----|--1-----------||
|-------2-----------2----|--2-----------||
|-------2-----------2----|--2-----------||
|-0----------------------|--0-----------||
|-------------0----------|--------------||
| H           H
|
| A chord diagramE MajorE  A chord diagramE MajorE  A chord diagramE MajorE  A chord diagramE MajorE  A chord diagramE MajorE  A chord diagramE MajorE  A chord diagramE MajorE  A chord diagramE MajorE    A chord diagramE MajorE A chord diagramE MajorE Q  H
|---15p12----------------|--------------||
|---------13-12h13-12----|--------------||
|---------------------12-|--------------||
|------------------------|-14-----------||
|------------------------|--------------||
|------------------------|--------------||


 Pre-Chorus
  A chord diagramFF                             A chord diagramAm7Am7
  Q  Q  Q  A chord diagramE MajorE A chord diagramE MajorE   Q  Q  Q  A chord diagramE MajorE A chord diagramE MajorE   Q  Q  A chord diagramE MajorE A chord diagramE MajorE Q    Q  Q  A chord diagramE MajorE A chord diagramE MajorE Q
|----1-----1-1-|----1-----1-1-|----3----3-3--|----3----3-3--|
|----1-----1-1-|----1-----1-1-|----1----1-1--|----1----1-1--|
|----2-----2-2-|----2-----2-2-|----2----2-2--|----2----2-2--|
|----3-----3-3-|----3-----3-3-|----2----2-2--|----2----2-2--|
|-------3------|-------3------|-0------------|-0------------|
|-1------------|-1------------|-------0------|-------0------|
  H     H        H     H        H     H        H     H


  A chord diagramFF                             A chord diagramG+G
  Q  Q  Q  A chord diagramE MajorE A chord diagramE MajorE   Q  Q  Q  A chord diagramE MajorE A chord diagramE MajorE   Q  Q  A chord diagramE MajorE A chord diagramE MajorE Q    W          +W
|----1-----1-1-|----1-----1-1-|----3----3-3--|-3--------|-(3)----||
|----1-----1-1-|----1-----1-1-|----0----0-0--|-0--------|-(0)----||
|----2-----2-2-|----2-----2-2-|----0----0-0--|-0--------|-(0)----||
|----3-----3-3-|----3-----3-3-|-------0------|-0--------|-(0)----||
|-------3------|-------3------|--------------|----------|--------||
|-1------------|-1------------|-3------------|-3--------|-(3)----||
  H     H        H     H        H     H


   Chorus
    $
    A chord diagramFF               A chord diagramG+G               Amadd2
    Q  Q  A chord diagramE MajorE A chord diagramE MajorE A chord diagramE MajorE A chord diagramE MajorE   Q  Q  A chord diagramE MajorE A chord diagramE MajorE A chord diagramE MajorE A chord diagramE MajorE   Q  Q  A chord diagramE MajorE A chord diagramE MajorE A chord diagramE MajorE A chord diagramE MajorE   Q  Q  A chord diagramE MajorE A chord diagramE MajorE A chord diagramE MajorE A chord diagramE MajorE   3x
||-----1----1-1-1-|----3----3-3-3-|----0----0-0-0-|----0----0-0-0---||
||o----1----1-1-1-|----0----0-0-0-|----0----0-0-0-|----0----0-0-0--o||
||-----2----2-2-2-|----0----0-0-0-|----5----5-5-5-|----5----5-5-5---||
||-----3----3-3-3-|-------0-------|----7----7-7-7-|----7----7-7-7---||
||o-------3-------|---------------|-0-------------|-0--------------o||
||--1-------------|-3-------------|-------0-------|-------0---------||
    H     H         H     H         H     H         H     H


                                                         To Coda
  A chord diagramFF               A chord diagramG+G               Amadd2
  Q  Q  A chord diagramE MajorE A chord diagramE MajorE A chord diagramE MajorE A chord diagramE MajorE   Q  Q  A chord diagramE MajorE A chord diagramE MajorE A chord diagramE MajorE A chord diagramE MajorE   Q  Q  A chord diagramE MajorE A chord diagramE MajorE A chord diagramE MajorE A chord diagramE MajorE   Q  Q  A chord diagramE MajorE A chord diagramE MajorE A chord diagramE MajorE A chord diagramE MajorE
|----1----1-1-1-|----3----3-3-3-|----0----0-0-0-|----0----0-0-0---||
|----1----1-1-1-|----0----0-0-0-|----0----0-0-0-|----0----0-0-0---||
|----2----2-2-2-|----0----0-0-0-|----5----5-5-5-|----5----5-5-5---||
|----3----3-3-3-|-------0-------|----7----7-7-7-|----7----7-7-7---||
|-------3-------|---------------|-0-------------|-0---------------||
|-1-------------|-3-------------|-------0-------|-------0---------||
  H     H         H     H         H     H         H     H


 3rd Verse
  A chord diagramAm7Am7
  Q  Q     Q     Q       Q     Q   A chord diagramE MajorE A chord diagramE MajorE Q    Q  Q  Q  Q    Q  Q  A chord diagramE MajorE A chord diagramE MajorE Q
|----3-----------3----|--------3-----3-3--|----3-----3--|----3----3-3--|
|----1-----------1----|--------1-----1-1--|----1-----1--|----1----1-1--|
|----2-----------2----|--------2-----2-2--|----2-----2--|----2----2-2--|
|----2-----------2----|--------2-----2-2--|----2-----2--|----2----2-2--|
|-0-------------------|--0----------------|-0-----------|-0------------|
|----------0----------|------------0------|-------0-----|-------0------|
| H        H             H         H        H     H       H     H
|
| Gtr II
|                              ~~~
| Q  A chord diagramE MajorE  A chord diagramE MajorE  A chord diagramE MajorE  A chord diagramE MajorE  A chord diagramE MajorE  A chord diagramE MajorE    A chord diagramE MajorE  A chord diagramE MajorE  H.           W             W
|------15p12----------|-------------------|-------------|--------------|
|------------13-12h13-|-12----------------|-------------|--------------|
|---------------------|----12-------------|-------------|--------------|
|---------------------|-------14----------|-------------|--------------|
|---------------------|-------------------|-------------|--------------|
|---------------------|-------------------|-------------|--------------|


  Q  Q     Q     Q       Q     Q   A chord diagramE MajorE A chord diagramE MajorE Q    Q  Q  Q  Q    Q  Q  A chord diagramE MajorE A chord diagramE MajorE Q
|----3-----------3----|--------3-----3-3--|----3-----3--|----3----3-3--||
|----1-----------1----|--------1-----1-1--|----1-----1--|----1----1-1--||
|----2-----------2----|--------2-----2-2--|----2-----2--|----2----2-2--||
|----2-----------2----|--------2-----2-2--|----2-----2--|----2----2-2--||
|-0-------------------|--0----------------|-0-----------|-0------------||
|----------0----------|------------0------|-------0-----|-------0------||
| H        H             H         H        H     H       H     H
|
|                              ~~~
| Q  A chord diagramE MajorE  A chord diagramE MajorE  A chord diagramE MajorE  A chord diagramE MajorE  A chord diagramE MajorE  A chord diagramE MajorE    A chord diagramE MajorE  A chord diagramE MajorE  H.           W             W
|------15p12----------|-------------------|-------------|--------------||
|------------13-12h13-|-12----------------|-------------|--------------||
|---------------------|----12-------------|-------------|--------------||
|---------------------|-------14----------|-------------|--------------||
|---------------------|-------------------|-------------|--------------||
|---------------------|-------------------|-------------|--------------||


   Bridge
    A chord diagramFF                 A chord diagramC majorC             A chord diagramG+G
                                        PM---------|        PM---------|
     W                 W            Q   A chord diagramE MajorE  A chord diagramE MajorE Q   A chord diagramE MajorE  A chord diagramE MajorE   Q   A chord diagramE MajorE  A chord diagramE MajorE Q   A chord diagramE MajorE  A chord diagramE MajorE   4x
||------------------|-------------|-------------------|---------------------||
||o-10--------------|--8----------|----12-12----12-12-|----12-12----12-12--o||
||--10--------------|--9----------|----12-12----12-12-|----12-12----12-12---||
||--10--------------|-10----------|----12-12----12-12-|----12-12----12-12---||
||o--8--------------|-10----------|-------------------|--------------------o||
||------------------|--8----------|-------------------|---------------------||
|
|           ~~~~
|    A chord diagramE MajorE  A chord diagramE MajorE  +H.         A chord diagramE MajorE Q.  H      W                   W                   4x
||------------------|-------------|-------------------|---------------------||
||o----10-(10)------|----1s==5----|-------------------|--------------------o||
||-----10-(10)------|----1s==5----|-------------------|---------------------||
||-----10-(10)------|----1s==5----|-------------------|---------------------||
||o-----------------|-------------|-------------------|--------------------o||
||------------------|-------------|-------------------|---------------------||


                                             4th Verse
                                              A chord diagramAm7Am7
        PM---------|        PM---------|
    Q   A chord diagramE MajorE  A chord diagramE MajorE Q   A chord diagramE MajorE  A chord diagramE MajorE   Q   A chord diagramE MajorE  A chord diagramE MajorE Q   A chord diagramE MajorE  A chord diagramE MajorE  3x Q  Q  Q  Q    Q  Q  A chord diagramE MajorE A chord diagramE MajorE Q
||--------------------|--------------------||----3-----3--|----3----3-3---|
||o----12-12----12-12-|----12-12----12-12-o||----1-----1--|----1----1-1---|
||-----12-12----12-12-|----12-12----12-12--||----2-----2--|----2----2-2---|
||-----12-12----12-12-|----12-12----12-12--||----2-----2--|----2----2-2---|
||o-------------------|-------------------o||-0-----------|-0-------------|
||--------------------|--------------------||-------0-----|-------0-------|
                                              H     H       H     H


  Q  Q  Q  Q    Q  Q  A chord diagramE MajorE A chord diagramE MajorE Q    Q  Q     Q     Q       Q     Q   A chord diagramE MajorE A chord diagramE MajorE Q
|----3-----3--|----3----3-3--|----3-----------3----|--------3-----3-3--|
|----1-----1--|----1----1-1--|----1-----------1----|--------1-----1-1--|
|----2-----2--|----2----2-2--|----2-----------2----|--------2-----2-2--|
|----2-----2--|----2----2-2--|----2-----------2----|--------2-----2-2--|
|-0-----------|-0------------|-0-------------------|--0----------------|
|-------0-----|-------0------|----------0----------|------------0------|
| H     H       H     H        H        H             H         H
|
| Gtr II
|                                                           ~~~
| W             W              Q  A chord diagramE MajorE  A chord diagramE MajorE  A chord diagramE MajorE  A chord diagramE MajorE  A chord diagramE MajorE  A chord diagramE MajorE    A chord diagramE MajorE  A chord diagramE MajorE  H.
|-------------|--------------|------15p12----------|-------------------|
|-------------|--------------|------------13-12h13-|-12----------------|
|-------------|--------------|---------------------|----12-------------|
|-------------|--------------|---------------------|-------14----------|
|-------------|--------------|---------------------|-------------------|
|-------------|--------------|---------------------|-------------------|


                              Pre-Chorus
                               A chord diagramFF
  Q  Q  Q  Q    A chord diagramE MajorE A chord diagramE MajorE Q  H        W          +W
|----3-----3--|-3-----------||-^1--------|-(1)----|
|----1-----1--|-1-----------||-^1--------|-(1)----|
|----2-----2--|-2-----------||-^2--------|-(2)----|
|----2-----2--|-2-----------||-^3--------|-(3)----|
|-0-----------|-0-----------||-^3--------|-(3)----|
|-------0-----|-------------||-^1--------|-(1)----|
  H     H


  Amadd2                   A chord diagramG+G
   W          +W            W          +W
|-^0--------|-(0)--------|-^3--------|-(3)----|
|-^0--------|-(0)--------|-^3--------|-(3)----|
|-^5--------|-(5)--------|-^4--------|-(4)----|
|-^7--------|-(7)--------|-^5--------|-(5)----|
|-----------|------------|-^5--------|-(5)----|
|-----------|------------|-^3--------|-(3)----|


  Amadd2                   A chord diagramFF
   W          +W           W          +W
|-^0--------|-(0)--------|-1--------|-(1)----|
|-^0--------|-(0)--------|-1--------|-(1)----|
|-^5--------|-(5)--------|-2--------|-(2)----|
|-^7--------|-(7)--------|-3--------|-(3)----|
|-----------|------------|-3--------|-(3)----|
|-----------|------------|-1--------|-(1)----|


                                      D.S. al Coda
  A chord diagramG+G
  W          +W           W          W          W
|-3--------|-(3)--------|----------|----------|-------||
|-3--------|-(3)--------|----------|----------|-------||
|-4--------|-(4)--------|----------|----------|-------||
|-5--------|-(5)--------|----------|----------|-------||
|-5--------|-(5)--------|----------|----------|-------||
|-3--------|-(3)--------|----------|----------|-------||


   Outro
    &
    A chord diagramAm7Am7
    Q  Q     Q     Q       Q     Q   A chord diagramE MajorE A chord diagramE MajorE Q    Q  Q  Q  Q    Q  Q  A chord diagramE MajorE A chord diagramE MajorE Q
||-----3-----------3----|--------3-----3-3--|----3-----3--|----3----3-3----||
||o----1-----------1----|--------1-----1-1--|----1-----1--|----1----1-1---o||
||-----2-----------2----|--------2-----2-2--|----2-----2--|----2----2-2----||
||-----2-----------2----|--------2-----2-2--|----2-----2--|----2----2-2----||
||o-0-------------------|--0----------------|-0-----------|-0-------------o||
||-----------0----------|------------0------|-------0-----|-------0--------||
|   H        H             H         H        H     H       H     H
|
|   Gtr II
|                                ~~~
|   Q  A chord diagramE MajorE  A chord diagramE MajorE  A chord diagramE MajorE  A chord diagramE MajorE  A chord diagramE MajorE  A chord diagramE MajorE    A chord diagramE MajorE  A chord diagramE MajorE  H.           W             W
||-------15p12----------|-------------------|-------------|----------------||
||o------------13-12h13-|-12----------------|-------------|---------------o||
||----------------------|----12-------------|-------------|----------------||
||----------------------|-------14----------|-------------|----------------||
||o---------------------|-------------------|-------------|---------------o||
||----------------------|-------------------|-------------|----------------||


    Q     Q     Q     Q       Q     Q    A chord diagramE MajorE  A chord diagramE MajorE Q
||--------3-----------3----|--------3-------3-3--|
||o-------1-----------1----|--------1-------1-1--|
||--------2-----------2----|--------2-------2-2--|
||--------2-----------2----|--------2-------2-2--|
||o-0----------------------|--0------------------|
||--------------0----------|-------------0-------|
|   H           H             H          H
|
|                                ~~~~~~~~~~~
|   A chord diagramE MajorE  A chord diagramE MajorE  A chord diagramE MajorE  A chord diagramE MajorE  A chord diagramE MajorE  A chord diagramE MajorE  A chord diagramE MajorE  A chord diagramE MajorE    A chord diagramE MajorE  Q.     +H
||----15p12----------------|---------------------|
||o---------13-12h13-12----|---------------------|
||----------------------12-|-14------------------|
||-------------------------|----14-----(14)------|
||o------------------------|---------------------|
||-------------------------|---------------------|


  Q  Q  Q  Q    Q  Q  A chord diagramE MajorE A chord diagramE MajorE Q
|----3-----3--|----3----3-3----||
|----1-----1--|----1----1-1---o||
|----2-----2--|----2----2-2----||
|----2-----2--|----2----2-2----||
|-0-----------|-0-------------o||
|-------0-----|-------0--------||
| H     H       H     H
|
| W             W
|-------------|----------------||
|-------------|---------------o||
|-------------|----------------||
|-------------|----------------||
|-------------|---------------o||
|-------------|----------------||


    A chord diagramAm7Am7
    Q     Q     Q     Q       Q     Q      A chord diagramE MajorE  A chord diagramE MajorE Q    Q     Q     Q     Q
||--------3-----------3----|--------3---------3-3--|-------3-----------3----|
||o-------1-----------1----|--------1---------1-1--|-------1-----------1----|
||--------2-----------2----|--------2---------2-2--|-------2-----------2----|
||--------2-----------2----|--------2---------2-2--|-------2-----------2----|
||o-0----------------------|--0--------------------|-0----------------------|
||--------------0----------|---------------0-------|-------------0----------|
|   H           H             H            H         H           H
|
|   A chord diagramE MajorE  A chord diagramE MajorE  A chord diagramE MajorE  A chord diagramE MajorE  A chord diagramE MajorE  A chord diagramE MajorE  A chord diagramE MajorE  A chord diagramE MajorE    A chord diagramE MajorE  A chord diagramE MajorE  A chord diagramE MajorE  A chord diagramE MajorE  +H         A chord diagramE MajorE  A chord diagramE MajorE  A chord diagramE MajorE  A chord diagramE MajorE  A chord diagramE MajorE  A chord diagramE MajorE  A chord diagramE MajorE  A chord diagramE MajorE
||----15p12----------------|-----------------------|---15p12----------------|
||o---------13-12h13----12-|-----------------------|---------13-12h13----12-|
||-------------------14----|-12-14----12-(12)------|------------------14----|
||-------------------------|-------14--------------|------------------------|
||o------------------------|-----------------------|------------------------|
||-------------------------|-----------------------|------------------------|


   Q     Q      A chord diagramE MajorE  A chord diagramE MajorE Q    Q     Q     Q     Q       Q     Q      A chord diagramE MajorE  A chord diagramE MajorE Q   3x
|--------3---------3-3--|-------3-----------3----|--------3---------3-3---||
|--------1---------1-1--|-------1-----------1----|--------1---------1-1--o||
|--------2---------2-2--|-------2-----------2----|--------2---------2-2---||
|--------2---------2-2--|-------2-----------2----|--------2---------2-2---||
|--0--------------------|-0----------------------|--0--------------------o||
|---------------0-------|-------------0----------|---------------0--------||
|  H            H         H           H             H            H
|
|  A chord diagramE MajorE  A chord diagramE MajorE  A chord diagramE MajorE  A chord diagramE MajorE  +H         A chord diagramE MajorE  A chord diagramE MajorE  A chord diagramE MajorE  A chord diagramE MajorE  A chord diagramE MajorE  A chord diagramE MajorE  A chord diagramE MajorE  A chord diagramE MajorE    A chord diagramE MajorE  A chord diagramE MajorE  A chord diagramE MajorE  A chord diagramE MajorE  +H        3x
|-----------------------|---15p12----------------|------------------------||
|-----------------------|---------13-12h13----12-|-----------------------o||
|-12-14----12-(12)------|------------------14----|-12-14----12-(12)-------||
|-------14--------------|------------------------|-------14---------------||
|-----------------------|------------------------|-----------------------o||
|-----------------------|------------------------|------------------------||


Duration 🏷Legend
---------------
W - whole; H - half; Q - quarter; A chord diagramE MajorE - 8th; S - 16th; T - 32nd; X - 64th; a - acciaccatura
+ - note tied to previous; . - note dotted; .. - note double dotted
Uncapitalized letters represent notes that are staccato (1/2 duration)
Irregular groupings are notated above the duration line
Duration letters will always appear directly above the note/fret number it represents the
duration for.  Duration letters with no fret number below them represent rests.  Multi-
bar rests are notated in the form Wxn, where n is the number of bars to rest for.  Low
melody durations appear below the staff

Tablature 🏷Legend
----------------
 h   - hammer-on
 p   - pull-off
 b   - bend
 pb  - pre-bend
 r   - bend release (if no number after the r, then release immediately)
 /\  - slide into or out of (from/to "nowhere")
 s   - legato slide
 S   - shift slide
  - natural harmonic
[n]  - artificial harmonic
n(n) - tapped harmonic
 ~   - vibrato
 tr  - trill
 T   - tap
 TP  - trem. picking
 PM  - palm muting
\n/  - tremolo bar dip; n = amount to dip
 \n  - tremolo bar down
 n/  - tremolo bar up
/n\  - tremolo bar inverted dip
 =   - hold bend; also acts as connecting device for hammers/pulls
 <>  - volume swell (louder/softer)
 x   - on rhythm slash represents muted slash
 o   - on rhythm slash represents single note slash

Misc 🏷Legend
-----------
 |  - bar
||  - double bar
||o - repeat start
o|| - repeat end
*|  - double bar (ending)
 :  - bar (freetime)
 $  - Segno
 &  - Coda
Tempo markers -  = BPM(8/16=s8/s16), where s8 = swing 8ths, s16 = swing 16ths
ⓘ Guitar tab for 'Sweet Sixteen' by Billy Idol, William Michael Albert Broad, a male post-punk artist from Stanmore, Middlesex, UK. Billy Idol was born in 1955. Billy Idol is known for his crazy rock/pop music.

Almost there ...

Sign in to get your own page with links to favourite songs and more. You are just one click away...

Login with Facebook Login with Google