Log in

One click and you are in

Login with Facebook Login with Google

Why sign up and log in

Guitar Tabs Explorer
Billy Idol bass tabs for Romeo s waiting

Bass tabs

Band- Billy Idol
Song- Romeo's waiting

Transcribed By: Maui1983
This is my interpretation of the song.
If you have any corrections, suggestions or questions, mail me...


standard tuning


 Riff A
  									  x2
||------------------|-----------------|-----------------|-------------------||
||------------------|-----------------|-----------------|-------------------||
||------------------|-----------------|-----------------|-------------------||
||-2-2-2-2-2-2-2-2--|-4-4-4-4-4-4-4-4-|-0-0-0-0-0-0-0-0-|-0-0-0-2-4-5-4-0---||


 Riff B

||-----------------|-----------------|-----------------|-------------------|
||-----------------|-----------------|-----------------|-------------------|
||-----------------|-----------------|-2-2-2-2-2-2-2-2-|-6-6-6-6-4-4-4-4---|
||-2-2-2-2-2-2-2-2-|-4-4-4-4-4-4-4-4-|-----------------|-------------------|


|-----------------|-----------------|-----------------|-------------------||
|-----------------|-----------------|-----------------|-------------------||
|-----------------|-----------------|-2-2-2-2-2-2-2-2-|-------------------||
|-2-2-2-2-2-2-2-2-|-4-4-4-4-4-4-4-4-|-----------------|-0-0-0-0-0-0-0-0---||

|-----------------|-----------------|-----------------|-------------------|
|-----------------|-----------------|-----------------|-------------------|
|-----------------|-----------------|-2-2-2-2-2-2-2-2-|-6-6-6-6-4-4-4-4---|
|-2-2-2-2-2-2-2-2-|-4-4-4-4-4-4-4-4-|-----------------|-------------------|


|-----------------|-----------------|-----------------|-----------------------||
|-----------------|-----------------|-----------------|-----------------------||
|-----------------|-----------------|-2-2-2-2-2-2-2-2-|-----------------------||
|-2-2-2-2-2-2-2-2-|-4-4-4-4-4-4-4-4-|-----------------|-5-6-5-6-5-6-5-6-66-55-||


 Chorus

||------------------|------------------|
||------------------|------------------|
||---------4-4-4-4--|-1-1-1-1-2-2-2-2--|
||-2-2-2-2----------|------------------|

|------------------|------------------|
|------------------|------------------|
|---------4-4-4-4--|---1-1-1-2-2-2-2--|
|-2-2-2-2----------|------------------|

|------------------|------------------||
|------------------|------------------||
|---------4-4-4-4--|-1-1-1-1-2-2-2-2--||
|-2-2-2-2----------|------------------||


 Riff c

||------------------|------------------|-----------------|------------------|
||------------------|------------------|-----------------|------------------|
||------------------|-2-2-2-2-2-2-2-2--|-6-6-6-6-4-4-4-4-|------------------|
||-4-4-4-4-4-4-4-4--|------------------|-----------------|-0-2-0-2-4-2------|

|------------------|------------------|-----------------||
|------------------|------------------|-----------------||
|------------------|-2-2-2-2-2-2-2-2--|-6-6-6-6-4-4-4-4-||
|-4-4-4-4-4-4-4-4--|------------------|-----------------||



 Riff A  x2

 Riff B

 Chorus

 Riff c

 Riff A  x1


 Riff D
                                    x5
||--------------|-------------|-----------------------------------------||
||--------------|-------------|-4-3-1-----------------------------------||
||-0-0-0-0-0-0--|-2-2-2-2-2-2-|-------2---------------------------------||
||--------------|-------------|----------2-2-2-2---0-0-0-2-2-2-2---0-0-0||


 Riff D.2
          x2
||------------------||
||------------------||
||------------------||
||-2-2-2-2-0-0-0-0--||


 Riff c


 Silence


 Riff E

||------------------|
||------------------|
||---1-1-1-2-2-2-2--|
||------------------|

|------------------|------------------||
|------------------|------------------||
|---------4-4-4-4--|-1-1-1-1-2-2-2-2--||
|-2-2-2-2----------|------------------||


 Riff F

||------------------|-----------------||
||------------------|-----------------||
||---------2-2-2-2--|-6-6-6-6-4-4-4-4-||
||-4-4-4-4----------|-----------------||


 Chorus


 Riff F x2


 Riff G

||------------------|------------------|-----------------||
||------------------|------------------|-----------------||
||-6-6-6-6-4-4-4----|-6-6-6-6-4-4-4-4--|-----------------||
||------------------|------------------|-2------2--------||
ⓘ Bass guitar tab for 'Romeo S Waiting' by Billy Idol, William Michael Albert Broad, a male post-punk artist from Stanmore, Middlesex, UK. Billy Idol was born in 1955. Billy Idol is known for his crazy rock/pop music.

Almost there ...

Sign in to get your own page with links to favourite songs and more. You are just one click away...

Login with Facebook Login with Google