Log in

One click and you are in

Login with Facebook Login with Google

Why sign up and log in

Guitar Tabs Explorer
Billy Idol bass tabs for Hot in the city

Bass tabs

Tuning: Standard (E A D G)


settings suggestion :
  pickup = 50% neck / 50% bridge
  EQ = 50% bass / 50% mid / 50% treble
Intro :
 |:2x                                :|
G|----------------|----------------|----------------|----------------|
D|----------------|----------------|----------------|----------------|
A|3---+-----------|3---+-----------|3---+-----------|3---+-----------|
E|------3-5---3---|------3-5-5-3---|------3-5---3---|------3-5-5-3---|


Verse A :
 |:2x                                :|
G|----------------|----------------|----------------|----------------|
D|----------------|----------------|----------------|----------------|
A|3---+-----------|3---+-----------|3---+-----------|3---+-----------|
E|------3-5---3---|------3-5-5-3---|------3-5---3---|------3-5-5-3---|

G|----------------|----------------|----------------|----------------|
D|------------3---|--------3---2---|----------------|----------------|
A|----------3-----|----------------|--------5-3-2---|+---------------|
E|3-------1-------|3---+-3---------|3---+-3---------|--3-5-3-6-3-7---|


Chorus A :
 |:7x      :|
G|----------------|----------------|----------------|----------------|
D|----------------|----------------|----------------|----3---2-------|
A|3---+------H3---|3---+------H3-+-|----------------|------------0-2-|
E|------5---35--5-|------5---35----|3-3-3-3-3-3-3-3-|3-3---3---3-----|

Intro


Verse B :
 |:2x                                :|
G|----------------|----------------|----------------|----------------|
D|----------------|----------------|----------------|----------------|
A|3---+-----------|3---+-----------|3---+-----------|3---+-----------|
E|------3-5---3---|------3-5-5-3---|------3-5---3---|------3-5-5-3---|

G|----------------|----------------|----------------|----------------|
D|------------3---|------------3-2-|----------------|----------------|
A|----------3-----|----------------|--------5-3-2---|+---------------|
E|3---+-3-1-------|3---+-3---3-----|3---+-3---------|--3-5-3-6-3-7---|


Chorus B :
 |:3x      :|        |:3x      :|
G|----------------|----------------|----------------|----------------|
D|----------------|----------------|----------------|----------------|
A|3---+------H3---|3---+---------2-|3---+------H3---|3---+-----------|
E|------5---35--5-|------5---5-5---|------5---35--5-|------5---5-5-+-|


Bridge :
 |:18x      :|
G|----------------|----------------|----------------|
D|----------------|----------------|3-+-------------|
A|----------------|----------------|----------------|
E|3-3-3-3-3-3-3-3-|1-1-1-1-1-1-1-1-|----------------|


Chorus C :
 |:3x      :|        |:3x      :|
G|----------------|----------------|----------------|----------------|
D|----------------|----------------|----------------|----------------|
A|3---+------H3---|3---+-----3-----|3---+------H3---|3---+-----------|
E|------5---35--5-|------3-5---5-3-|------5---35--5-|------3-5-3-5-3-|

 |:3x      :|        |:3x >     :|
G|----------------|----------------|----------------|----------------|
D|----------------|----------------|----------------|----------------|
A|3---+------H3---|3-----------3---|3---+------H3---|3-----------3---|
E|------5---35--5-|--0-1-2-3-5---5-|------5---35--5-|--0-1-2-3-5---5-|



🏷Legend : + = mute string (stop sound)
     H = Hammer On (of the note just below the H)
     |: Nx :| = repeat N times the slice between |: and :|
     > = fade out the volume
ⓘ Bass guitar tab for 'Hot In The City' by Billy Idol, William Michael Albert Broad, a male post-punk artist from Stanmore, Middlesex, UK. Billy Idol was born in 1955. Billy Idol is known for his crazy rock/pop music.

Almost there ...

Sign in to get your own page with links to favourite songs and more. You are just one click away...

Login with Facebook Login with Google