Log in

One click and you are in

Login with Facebook Login with Google

Why sign up and log in

Guitar Tabs Explorer
Billy Idol bass tabs for Daytime drama

Bass tabs

Billy Idol - Daytime drama


Intro;
G|----------------|----------------|
D|----------------|--------5-------|
A|--1-3-----------|----1/3---3-5---|
E|1-----3---3-1-3-|--3-------------| 10x
Verse1 (Day by day);
G|----------------|----------------|
D|----------------|--------5-------|
A|--1-3-----------|----1/3---3-5---|
E|1-----3---3-1-3-|--3-------------| 6x, then;

G|----------------|----------------|
D|----------------|--------5-------|
A|--2-3-----------|----1/3---3-5---|
E|3-----3---3-1-3-|--3-------------| 2x


Verse2 (You don't want a hard patch);
- Play as Verse1

Break1 (Don't touch her man);
G|----------------|----------------|----------------|----------------|
D|----------------|----------------|----------------|----------------|
A|----------------|----------------|----------------|----------------|
E|5-555--3-5-3-5--|5--555--3-5-3-5-|7--777--5-7-5-7-|7-777--5-7-5-7--|

G|----------------|----------------|----------------|----------------|
D|----------------|----------------|----------------|----------------|
A|----------------|----------------|----------------|----------------|
E|5-555--3-5-3-5--|5--555--3-5-3-5-|3--333--1-3-1-3-|3--333--1-3-1-3-|

Instrumental part1;
G|----------------|----------------|
D|----------------|--------5-------|
A|--1-3-----------|----1/3---3-5---|
E|1-----3---3-1-3-|--3-------------| 2x, then;

G|----------------|----------------|
D|----------------|--------5-------|
A|--2-3-----------|----1/3---3-5---|
E|3-----3---3-1-3-|--3-------------| 2x


Verse3 (Beautiful stars);
- Play as Verse1

Break2 (Don't touch her man);
G|----------------|----------------|----------------|----------------|
D|----------------|----------------|----------------|----------------|
A|----------------|----------------|----------------|----------------|
E|5-555--3-5-3-5--|5--555--3-5-3-5-|7--777--5-7-5-7-|7-777--5-7-5-7--|

G|----------------|----------------|----------------|----------------|
D|----------------|----------------|----------------|----------------|
A|----------------|----------------|----------------|----------------|
E|5-555--3-5-3-5--|5--555--3-5-3-5-|3--333--1-3-1-3-|3--333----3---3-|


Verse4 (Beautiful star); Play next 8 bars 2x
G|----------------|----------------|----------------|--------9-------|
D|----------------|--------5-------|--6-7-----------|----5/7---7-9---|
A|--2-3-----------|----1/3---3-5---|7-----7---7-5-7-|--7-------------|
E|3-----3---3-1-3-|--3-------------|----------------|----------------|

G|----------------|--------5-------|----------------|----------------|
D|--2-3-----------|----1/3---3-5---|----------------|--------5-------|
A|3-----3---3-1-3-|--3-------------|--2-3-----------|----1/3---3-5---|
E|----------------|----------------|3-----3---3-1-3-|--3-------------|


Verse5/Outro (Some are happy and some are amazed;
- Play Verse4 fading out
ⓘ Bass guitar tab for 'Daytime Drama' by Billy Idol, William Michael Albert Broad, a male post-punk artist from Stanmore, Middlesex, UK. Billy Idol was born in 1955. Billy Idol is known for his crazy rock/pop music.

Almost there ...

Sign in to get your own page with links to favourite songs and more. You are just one click away...

Login with Facebook Login with Google