Log in

One click and you are in

Login with Facebook Login with Google

Why sign up and log in

Guitar Tabs Explorer
Billy Idol bass tabs for Dancing with myself

Bass tabs with lyrics

Standard tuning (EADG)

Music video version


🏷Legend:
r = rest
h = hammer on
a = acciaccatura (appears above bar)
vf = volume fade (appears above bar)
vo = volume out (appears above bar)

INTRO:
    (Rest x4)
G |-----------------|
D |-----------------|
A |-----------------|
E |-r---------------|
  1 & 2 & 3 & 4 &

         (x2)
G |-----------------|-----------------||-----------------|-----------------|
D |-----------------|-----------------||-----------------|-----------------|
A |-----------------|-----------------||-----------------|-7-----7-----7---|
E |-0-0-0-0-0-0-0-0-|-0-0-0-0-0-0-0-0-||-0-0-0-0-0-0-0-0-|---0-0---0-0---0-|
  1 & 2 & 3 & 4 &  1 & 2 & 3 & 4 &  1 & 2 & 3 & 4 &  1 & 2 & 3 & 4 &


VERSE 1:

G |-----------------|-----------------|-----------------|-----------------|
D |-----------------|-----------------|-----------------|-----------------|
A |-7-7-7-7-7-7-7-7-|-7-7-7-7-7-7-7-7-|-----------------|-----------------|
E |-----------------|-----------------|-5-5-5-5-5-5-5-5-|-5-5-5-5-5-5-5-0-|
  1 & 2 & 3 & 4 &  1 & 2 & 3 & 4 &  1 & 2 & 3 & 4 &  1 & 2 & 3 & 4 &

G |-----------------|-----------------|-----------------|-----------------|
D |-----------------|-----------------|-----------------|-----------------|
A |-----------------|-----------------|-----------------|-----------------|
E |-7-7-7-7-7-7-7-7-|-7-7-7-7-7-7-7-7-|-5-5-5-5-5-5-5-5-|-5-5-5-5-5-5-5-0-|
  1 & 2 & 3 & 4 &  1 & 2 & 3 & 4 &  1 & 2 & 3 & 4 &  1 & 2 & 3 & 4 &

G |-----------------|-----------------|-----------------|-----------------|
D |-----------------|-----------------|-----------------|-----------------|
A |-7-7-7-7-7-7-7-7-|-7-7-7-7-7-7-7-7-|-----------------|-----------------|
E |-----------------|-----------------|-5-5-5-5-5-5-5-5-|-5-5-5-5-5-5-5-0-|
  1 & 2 & 3 & 4 &  1 & 2 & 3 & 4 &  1 & 2 & 3 & 4 &  1 & 2 & 3 & 4 &

G |-----------------|-----------------|-----------------|-----------------|
D |-----------------|-----------------|-----------------|-----------------|
A |-----------------|-----------------|-----------------|-----------------|
E |-7-7-7-7-7-7-7-7-|-7-7-7-7-7-7-7-7-|-5-5-5-5-5-5-5-5-|-5-5-5-5-5-5-5-5-|
  1 & 2 & 3 & 4 &  1 & 2 & 3 & 4 &  1 & 2 & 3 & 4 &  1 & 2 & 3 & 4 &


CHORUS 1:

G |-----------------|-----------------|-----------------|-----------------|
D |-----------------|-----------------|-----------------|-----------------|
A |-----------------|-----------------|-----------------|-----------------|
E |-0-0-0-0-0-0-0-0-|-0-0-0-0-0-0-0-0-|-5-5-5-5-5-5-5-5-|-5-5-5-5-5-5-5-5-|
  1 & 2 & 3 & 4 &  1 & 2 & 3 & 4 &  1 & 2 & 3 & 4 &  1 & 2 & 3 & 4 &

G |-----------------|-----------------|-----------------|-----------------|
D |-----------------|-----------------|-----------------|-----------------|
A |-----------------|-----------------|-----------------|-----------------|
E |-7-7-7-7-7-7-7-7-|-7-7-7-7-7-7-7-7-|-5-5-5-5-5-5-5-5-|-5-5-5-5-5-5-5-5-|
  1 & 2 & 3 & 4 &  1 & 2 & 3 & 4 &  1 & 2 & 3 & 4 &  1 & 2 & 3 & 4 &


FILL:

G |-----------------|-----------------|
D |-----------------|-----------------|
A |-----------------|-----------------|
E |-0-0-0-0-0-0-0-0-|-0-0-0-0-0-0-0-0-|
  1 & 2 & 3 & 4 &  1 & 2 & 3 & 4 &


VERSE 2:

G |-----------------|-----------------|-----------------|-----------------|
D |-----------------|-----------------|-----------------|-----------------|
A |-7-7-7-7-7-7-7-7-|-7-7-7-7-7-7-7-7-|-----------------|-----------------|
E |-----------------|-----------------|-5-5-5-5-5-5-5-5-|-5-5-5-5-5-5-5-5-|
  1 & 2 & 3 & 4 &  1 & 2 & 3 & 4 &  1 & 2 & 3 & 4 &  1 & 2 & 3 & 4 &

G |-----------------|-----------------|-----------------|-----------------|
D |-----------------|-----------------|-----------------|-----------------|
A |-----------------|-----------------|-----------------|-----------------|
E |-7-7-7-7-7-7-7-7-|-7-7-7-7-7-7-7-7-|-5-5-5-5-5-5-5-5-|-5-5-5-5-5-5-5-0-|
  1 & 2 & 3 & 4 &  1 & 2 & 3 & 4 &  1 & 2 & 3 & 4 &  1 & 2 & 3 & 4 &

G |-----------------|-----------------|-----------------|-----------------|
D |-----------------|-----------------|-----------------|-----------------|
A |-5h7-7-7-7-7-7-7-|-7-7-7-7-7-7-7-7-|-----------------|-----------------|
E |-----------------|-----------------|-5-5-5-5-5-5-5-5-|-5-5-5-5-5-5-5-5-|
  1 & 2 & 3 & 4 &  1 & 2 & 3 & 4 &  1 & 2 & 3 & 4 &  1 & 2 & 3 & 4 &

G |-----------------|-----------------|-----------------|-----------------|
D |-----------------|-----------------|-----------------|-----------------|
A |-----------------|-----------------|-----------------|-----------------|
E |-7-7-7-7-7-7-7-7-|-7-7-7-7-7-7-7-7-|-5-5-5-5-5-5-5-5-|-5-5-5-5-5-5-5-5-|
  1 & 2 & 3 & 4 &  1 & 2 & 3 & 4 &  1 & 2 & 3 & 4 &  1 & 2 & 3 & 4 &


CHORUS 2:

G |-----------------|-----------------|-----------------|-----------------|
D |-----------------|-----------------|-----------------|-----------------|
A |-----------------|-----------------|-----------------|-----------------|
E |-0-0-0-0-0-0-0-0-|-0-0-0-0-0-0-0-0-|-5-5-5-5-5-5-5-5-|-5-5-5-5-5-5-5-5-|
  1 & 2 & 3 & 4 &  1 & 2 & 3 & 4 &  1 & 2 & 3 & 4 &  1 & 2 & 3 & 4 &

G |-----------------|-----------------|-----------------|-----------------|
D |-----------------|-----------------|-----------------|-----------------|
A |-----------------|-----------------|-----------------|-----------------|
E |-7-7-7-7-7-7-7-7-|-7-7-7-7-7-7-7-7-|-5-5-5-5-5-5-5-5-|-5-5-5-5-5-5-5-5-|
  1 & 2 & 3 & 4 &  1 & 2 & 3 & 4 &  1 & 2 & 3 & 4 &  1 & 2 & 3 & 4 &


BRIDGE:

G |-----------------|-----------------|-----------------|-----------------|
D |-----------------|-----------------|-----------------|-----------------|
A |-----------------|-----------------|-----------------|-----------------|
E |-0-0-0-0-0-0-0-0-|-0-0-0-0-0-0-0-0-|-5-5-5-5-5-5-5-5-|-5-5-5-5-5-5-5-5-|
  1 & 2 & 3 & 4 &  1 & 2 & 3 & 4 &  1 & 2 & 3 & 4 &  1 & 2 & 3 & 4 &

G |-----------------|-----------------|-----------------|-----------------|
D |-----------------|-----------------|-----------------|-----------------|
A |-----------------|-----------------|-----------------|-----------------|
E |-0-0-0-0-0-0-0-0-|-0-0-0-0-0-0-0-0-|-7-7-7-7-7-7-7-7-|-7-7-7-7-7-7-7-5-|
  1 & 2 & 3 & 4 &  1 & 2 & 3 & 4 &  1 & 2 & 3 & 4 &  1 & 2 & 3 & 4 &


INTERLUDE (Repeat 1st staff x3):

G |-----------------|-----------------|-----------------|-----------------|
D |-----------------|-----------------|-----------------|-----------------|
A |-----------------|-----------------|-----------------|-----------------|
E |-7-7-7-7-7-7-7-7-|-7-7-7-7-7-7-7-7-|-0-0-0-0-0-0-0-0-|-0-0-0-0-0-0-0-0-|
  1 & 2 & 3 & 4 &  1 & 2 & 3 & 4 &  1 & 2 & 3 & 4 &  1 & 2 & 3 & 4 &

G |-----------------|-----------------|-----------------|-----------------|
D |-----------------|-----------------|-----------------|-----------------|
A |-----------------|-----------------|-----------------|-----------------|
E |-7-7-7-7-7-7-7-7-|-7-7-7-7-7-7-7-7-|-7-7-7-7-7-7-7-7-|-7-7-7-7-7-7-7-7-|
  1 & 2 & 3 & 4 &  1 & 2 & 3 & 4 &  1 & 2 & 3 & 4 &  1 & 2 & 3 & 4 &


VERSE 3:

G |-----------------|-----------------|-----------------|-----------------|
D |-----------------|-----------------|-----------------|-----------------|
A |-7-7-7-7-7-7-7-7-|-7-7-7-7-7-7-7-7-|-----------------|-----------------|
E |-----------------|-----------------|-5-5-5-5-5-5-5-5-|-5-5-5-5-5-5-5-5-|
  1 & 2 & 3 & 4 &  1 & 2 & 3 & 4 &  1 & 2 & 3 & 4 &  1 & 2 & 3 & 4 &

G |-----------------|-----------------|-----------------|-----------------|
D |-----------------|-----------------|-----------------|-----------------|
A |-----------------|-----------------|-----------------|-----------------|
E |-7-7-7-7-7-7-7-7-|-7-7-7-7-7-7-7-7-|-5-5-5-5-5-5-5-5-|-5-5-5-5-5-5-5-5-|
  1 & 2 & 3 & 4 &  1 & 2 & 3 & 4 &  1 & 2 & 3 & 4 &  1 & 2 & 3 & 4 &

G |-----------------|-----------------|-----------------|-----------------|
D |-----------------|-----------------|-----------------|-----------------|
A |-7-7-7-7-7-7-7-7-|-7-7-7-7-7-7-7-7-|-----------------|-----------------|
E |-----------------|-----------------|-5-5-5-5-5-5-5-5-|-5-5-5-5-5-5-5-5-|
  1 & 2 & 3 & 4 &  1 & 2 & 3 & 4 &  1 & 2 & 3 & 4 &  1 & 2 & 3 & 4 &

G |-----------------|-----------------|-----------------|-----------------|
D |-----------------|-----------------|-----------------|-----------------|
A |-----------------|-----------------|-----------------|-----------------|
E |-7-r-------------|-r---------------|-5-5-5-5-5-5-5-5-|-5-5-5-5-5-5-5-5-|
  1 & 2 & 3 & 4 &  1 & 2 & 3 & 4 &  1 & 2 & 3 & 4 &  1 & 2 & 3 & 4 &


CHORUS 3:

G |-----------------|-----------------|-----------------|-----------------|
D |-----------------|-----------------|-----------------|-----------------|
A |-----------------|-----------------|-----------------|-----------------|
E |-0-0-0-0-0-0-0-0-|-0-0-0-0-0-0-0-0-|-5-5-5-5-5-5-5-5-|-5-5-5-5-5-5-5-5-|
  1 & 2 & 3 & 4 &  1 & 2 & 3 & 4 &  1 & 2 & 3 & 4 &  1 & 2 & 3 & 4 &

         (x4)
G |-----------------|-----------------|
D |-----------------|-----------------|
A |-----------------|-----------------|
E |-7-7-7-7-7-7-7-7-|-7-7-7-7-7-7-7-7-|
  1 & 2 & 3 & 4 &  1 & 2 & 3 & 4 &


LEAD-IN TO OUTRO (x2):

G |-----------------|-----------------|-----------------|-----------------|
D |-----------------|-----------------|-----------------|-----------------|
A |-7-7-7-7-7-7-7-7-|-7-7-7-7-7-7-7-7-|-----------------|-----------------|
E |-----------------|-----------------|-5-5-5-5-5-5-5-5-|-5-5-5-5-5-5-5-5-|
  1 & 2 & 3 & 4 &  1 & 2 & 3 & 4 &  1 & 2 & 3 & 4 &  1 & 2 & 3 & 4 &


OUTRO:

G |-----------------|-----------------|-----------------|-----------------|
D |-----------------|-----------------|-7---5---7---5---|-7-7-5---7-7-5-0-|
A |-7---5---7---5---|-7-7-5---7---5---|-------7-------7-|-------7---------|
E |-------7-------7-|-------7-------7-|-----------------|-----------------|
  1 & 2 & 3 & 4 &  1 & 2 & 3 & 4 &  1 & 2 & 3 & 4 &  1 & 2 & 3 & 4 &
                                   a
G |-----------------|-----------------|-----------------|--------------h---|
D |-----------------|-----------------|-7-7-5---7---5---|-7-7-5-7-7-7-57-7-|
A |-7-7-5---7---5---|-7---5---7-7-5---|-------7-------7-|------------------|
E |-------7-------7-|-------7-------7-|-----------------|------------------|
  1 & 2 & 3 & 4 &  1 & 2 & 3 & 4 &  1 & 2 & 3 & 4 &  1 & 2 & 3 & 4 &

G |-----------------|-----------------|-----------------|-----------------|
D |-----------------|-----------------|-7-7-5---7---5---|-7---5---7-7-5-0-|
A |-7---5---7---5---|-7---5---7---5---|-------7-------7-|-------7---------|
E |-------7-------7-|-------7-------7-|-----------------|-----------------|
  1 & 2 & 3 & 4 &  1 & 2 & 3 & 4 &  1 & 2 & 3 & 4 &  1 & 2 & 3 & 4 &
                                   a
G |-----------------|-----------------|-----------------|--------------h---|
D |-----------------|-----------------|-7-7-5---7---5---|-7-7-5-7-7-7-57-7-|
A |-7---5---7---5---|-7---5---7---5---|-------7-------7-|------------------|
E |-------7-------7-|-------7-------7-|-----------------|------------------|
  1 & 2 & 3 & 4 &  1 & 2 & 3 & 4 &  1 & 2 & 3 & 4 &  1 & 2 & 3 & 4 &

  vf
G |-----------------|-----------------|-----------------|-----------------|
D |-----------------|-----------------|-7---5---7---5---|-7-7-7-7-7-7-7-7-|
A |-7---5---7---5---|-7---5---7---5---|-------7-------7-|-----------------|
E |-------7-------7-|-------7-------7-|-----------------|-----------------|
  1 & 2 & 3 & 4 &  1 & 2 & 3 & 4 &  1 & 2 & 3 & 4 &  1 & 2 & 3 & 4 &

                                     vo
G |-----------------|-----------------|-----------------|-----------------|
D |-----------------|-----------------|-7-7-5---7---5---|-7---5---7---5---|
A |-7-7-5---7---5---|-7---5---7---5---|-------7-------7-|-------7-------7-|
E |-------7-------7-|-------7-------7-|-----------------|-----------------|
  1 & 2 & 3 & 4 &  1 & 2 & 3 & 4 &  1 & 2 & 3 & 4 &  1 & 2 & 3 & 4 &

THE END
ⓘ Bass guitar tab for 'Dancing With Myself' by Billy Idol, William Michael Albert Broad, a male post-punk artist from Stanmore, Middlesex, UK. Billy Idol was born in 1955. Billy Idol is known for his crazy rock/pop music.

Almost there ...

Sign in to get your own page with links to favourite songs and more. You are just one click away...

Login with Facebook Login with Google